Menu Deep Purple
 



D.S. al Coda
\1
~~~~
|--3--|
E E E E E S S S E E S S S S +H.
|-------------------------------|------------------||
|-13r13-11----13-11h13p11-13-10-|------------------||
|----------12-------------------|-10h12-10h12-(12)-||
|-------------------------------|------------------||
|-------------------------------|------------------||
|-------------------------------|------------------||

Outro
&
G5 G5 Bb5 C5 G5 Bb5 DbC5
E E +H. E E E E Q E E E E E E Q Q
|--------------||-----------------|---------------|
|--------------||o----------------|---------------|
|--------------||------3---5------|---3---6S5-----|
|---5-(5)------||--5---3---5----5-|---3---6S5-----|
|---5-(5)------||o-5---1---3----5-|---1---4S3-----|
|---3-(3)------||--3------------3-|---------------|

G5 Bb5 C5 Bb5 G5
E E E E Q E E E E +H Q 4x
|----------------|------------------||
|----------------|-----------------o||
|-----3---5----3-|------------------||
|-5---3---5----3-|---5-(5)----------||
|-5---1---3----1-|---5-(5)---------o||
|-3--------------|---3-(3)----------||

G5 F5G5 C5DbC5 BbF G5
H. E E +W E E H E E +E E +H Q
|-------------|------------|--------------|----------------|
|-------------|------------|--------------|----------------|
|-------------|------------|-5-6-5----3---|----------------|
|-5-------3-5-|-(5)--------|-5-6-5----3-3-|-(3)-5-(5)------|
|-5-------3-5-|-(5)--------|-3-4-3----1-3-|-(3)-5-(5)------|
|-3-------1-3-|-(3)--------|------------1-|-(1)-3-(3)------|

G5 Bb5 C5 G5 Bb5 DbC5 G5 Bb5 C5 Bb5 G5
E E E E Q E E E E E E Q Q E E E E Q E E +E E H.
||-----------------|---------------|----------------|--------------||
||o----------------|---------------|----------------|-------------o||
||------3---5------|---3---6S5-----|-----3---5----3-|-(3)----------||
||--5---3---5----5-|---3---6S5-----|-5---3---5----3-|-(3)-5-5------||
||o-5---1---3----5-|---1---4S3-----|-5---1---3----1-|-(1)-5-5-----o||
||--3------------3-|---------------|-3--------------|-----3-3------||

Free Time Cadenza
G5 Bb5 C5
E E E E Q S S S S E S S S S S S S S E S S S S
|--------------------||-----------------------------|
|--------------------||-----------------------------|
|-----3---5------3-5-||-6-6-5-3---5-3-------3---5-3-|
|-5---3---5----5-----||---------5-----5-3-5---5-----|
|-5---1---3----------||-----------------------------|
|-3------------------||-----------------------------|

|-3-| |-3-| |-3-|
S S S S S E S S S E S S S S S S S
|-------------------------------------|
|-----------------------------------3-|
|---3-5p3---3-5p3---3-5p3---3-5-5b7---|
|-5-------5-------5-------5-----------|
|-------------------------------------|
|-------------------------------------|

|-3-| |-3-| |-3-|
Q E E E E E E E E E E E +H. Wx5
|-------6---------3-------|-------------|---------|
|-8b10----6-3---3---3-----|-------------|---------|
|-------------6-------6-5-|-3-5-(5)-----|---------|
|-------------------------|-------------|---------|
|-------------------------|-------------|---------|
|-------------------------|-------------|---------|

H E E E E E E E E Q E E
|-----------------|--------------------------------------|
|-----------11-13-|-13b15-13b15-13b15-13b15-13b15--13-11-|
|--------12-------|--------------------------------------|
|-----------------|--------------------------------------|
|-----------------|--------------------------------------|
|-----------------|--------------------------------------|

E E E E E E E E E e e e e e e e
|------------------------------|----10-11-12-13-14-15-16--|
|-13b15-13-11-13b15------11-13-|-14-----------------------|
|---------------------12-------|--------------------------|
|------------------------------|--------------------------|
|------------------------------|--------------------------|
|------------------------------|--------------------------|

Bb5G5
e e H. Wx2 W E E Q H
|-17-18-19b21----|--------|--------|-------------------*|
|----------------|--------|--------|-------------------*|
|----------------|--------|--------|-3-----------------*|
|----------------|--------|--------|-3--5--------------*|
|----------------|--------|--------|-1--5--------------*|
|----------------|--------|--------|----3--------------*|

Duration Legend
---------------
W - whole; H - half; Q - quarter; E - 8th; S - 16th; T - 32nd; X - 64th; a - acciaccatura
+ - note tied to previous; . - note dotted; .. - note double dotted
Uncapitalized letters represent notes that are staccato (1/2 duration)
Irregular groupings are notated above the duration line
Duration letters will always appear directly above the note/fret number it represents the
duration for. Duration letters with no fret number below them represent rests. Multi-
bar rests are notated in the form Wxn, where n is the number of bars to rest for. Low
melody durations appear below the staff
Tablature Legend
----------------
h - hammer-on
p - pull-off
b - bend
pb - pre-bend
r - bend release (if no number after the r, then release immediately)
/\ - slide into or out of (from/to "nowhere")
s - legato slide
S - shift slide
- natural harmonic
[n] - artificial harmonic
n(n) - tapped harmonic
~ - vibrato
tr - trill
T - tap
TP - trem. picking
PM - palm muting
\n/ - tremolo bar dip; n = amount to dip
\n - tremolo bar down
n/ - tremolo bar up
/n\ - tremolo bar inverted dip
= - hold bend; also acts as connecting device for hammers/pulls
<> - volume swell (louder/softer)
x - on rhythm slash represents muted slash
o - on rhythm slash represents single note slash
Misc Legend
-----------
| - bar
|| - double bar
||o - repeat start
o|| - repeat end
*| - double bar (ending)
: - bar (freetime)
$ - Segno
& - Coda
Tempo markers - = BPM(8/16=s8/s16),
where s8 = swing 8ths, s16 = swing 16ths
Stephan Hantel


Friends Deep Purple
 
 
 
 
Написать администратору сайта
 
Lyrics-FLyrics-SLyrics-wLyrics-JLyrics-Z

Все песни  D_P

 

August 1977 to November 1978
During 1996
Sometime during 1974


 
Копирование материалов с сайта только с согласия автора или при устаноки ссылки на источник

Неофициальный сайт Deep Purple © 2005 - 2017