Menu Deep Purple
 



Highway Star 3
(Blackmore/Gillan/Glover/Lord/Paice)
From "Machine Head", 1972
G C Bb F5 D
# # # # 2
# # # # 3
# # # # 2
# 5 3 # 0
5 3 1 3 #
3 # # 1 #
intro
G5 Fsus2/G C/G Fsus2/G G5 Fsus2/G G5 G5
-3------1-------0-------1-------3-------1--------3------3---
-3------1-------1-------1-------3-------1--------3------3---
-0------0-------0-------0-------0-------0--------0------0---
-5------3-------2-------3-------5-------3--------5------0---
------------------------------------------------------------
-3------3-------3-------3-------3-------3--------3------3---
12bars
G7 C Bb
riff 1
Bb C Bb
-----------
-----------
-3---5---3-
-3---5---3-
---5---5---
-----------
verses
G5 (riff 1)
(1)nobodys gonna take my car im gonna race it to the ground
(2)nobodys gonna take my girl im gonna keep her till the end
(3)nobodys gonna take my hand i got speed inside my brain
nobodys gonna beat my car its gonna break the speed of sound
nobodys gonna have my girl she stays close on every bend
nobobys gonna steal my hand no that im on the road again
F5
oh its a killing machine its got everything -------
oh shes a killing machine shes got everything -------
oh im in heaven again i got everything -------
-3-2-1-
-------
-------
D
like drivin power big fat tyres and everything
like a moving mouth body control and everything
like a moving ground throttle control and everything
chorus
Am7
---------------
---------------
-------------5-
-2-2-2-2-2-2-5-
-0-0-0-0-0-0---
---------------
i love it i need it i bleed it it a wild hurricane
i love her i need her i seed her she turns me on
i love it i need it i seed it eight cylinders all mine
C D C D C D F G A
-----------------------------------------------
-----------------------------------------------
-----------------------------------------------
-----------------------------------3----5----7-
-3--0-5-----3---0-5-----3---0-5--------------0-
-----------------------------------------------
al right hold tight im a high way star


Friends Deep Purple
 
 
 
 
Написать администратору сайта
 
Lyrics-FLyrics-SLyrics-wLyrics-JLyrics-Z

Все песни  D_P

 

May 1965 to August 1966
1966 to 1966? 1967? 1968?
Sometime during 1987


Риск менеджмент курсы тут
 
Копирование материалов с сайта только с согласия автора или при устаноки ссылки на источник

Неофициальный сайт Deep Purple © 2005 - 2017