Menu Deep Purple
 


Hush
(South)
From "Shades of Deep Purple", 1968


E||--6----------------|-------------------|--------------1----------|
B||-------------------|-------------------|--------------1-4--4b----|
G||-------------------|-----------------3-|--3b-3--1----------------|
D||-------------------|-------------------|----------3--------------|
A||-------------------|-------------------|-------------------------|
E||-------------------|-------------------|-------------------------|



-----------3---3---------3---|------------|------6------------------------|
--6b-------3-6---6---------3-|---6b-----6-|--------6-6r-6--4--6--4--3-----|
-------------------7h6h7-----|------------|----------------------------5--|
-----------------------------|------------|-------------------------------|
-----------------------------|------------|-------------------------------|
-----------------------------|------------|-------------------------------|



---------------------------|-------------------------------|
--4--3h4h3-1------4-1-4----|-------------------------------|
---------------------------|--5--3---3---------------------|
---------------------------|-------5---4/3-----5-3-5-3-5---|
---------------------------|-----------------------------6-|
---------------------------|-------------------------------|



--------------------|------------------|------------------|------------------|
--------------------|------------------|------------------|------------------|
--------------------|------------------|------------------|------------------|
--------------------|------------------|------------------|------------------|
--5/3~--------------|------------------|------------------|------------------|
--------------------|------------------|------------------|------------------|



------------------|------------------|------------------|------------------|
------------------|------------------|------------------|------------------|
------------------|------------------|------------------|------------------|
------------------|------------------|------------------|------------------|
------------------|------------------|------------------|------------------|
------------------|------------------|------------------|------------------|



------------------|----------------------|------------------------|
------------------|----------------------|--------------4---------|
------------------|-----------5h3--------|--3-----3--5----5~------|
------------------|--5~-----------5~-----|-----5------------------|
------------------|----------------------|------------------------|
------------------|----------------------|------------------------|



------------------|------------------|------------------|-------------------|
------------------|------------------|------------------|-------------------|
------------------|------------------|------------------|-------------5/----|
------------------|------------------|------------------|-------------------|
------------------|------------------|------------------|-------------------|
------------------|------------------|------------------|-------------------|



---------------------|--1----------------|--------8~------6------|
---------------------|--1----------------|----6/8-------------6r-|
--3----------------3-|-------------------|-----------------------|
--3------------------|-------------------|-----------------------|
---------------------|-------------------|-----------------------|
---------------------|-------------------|-----------------------|



--------------------6-|--8------------------|---------------------3--|
-----4-6--------------|---------9--8--------|-------------------6----|
----------5~----------|---------------------|--7----8-7---5----------|
----------------------|---------------------|------------------------|
----------------------|---------------------|------------------------|
----------------------|---------------------|------------------------|



-----------3-------------|-----------------------|----------------------|
-------------6-----------|--5--------------------|----------------------|
----------------8--5--7--|------5r---5-5---------|--5~---3--------------|
-------------------------|---------7-------------|---------6---5--------|
-------------------------|-----------------------|----------------------|
-------------------------|-----------------------|----------------------|



----------------------|----8---8-6b------6b6-------8-|--8------------------|
----------------------|------8---------------8-7-8---|--8------------------|
--7----8-7---5--------|------------------------------|----8-5~-------------|
----------------------|------------------------------|---------------------|
----------------------|------------------------------|---------------------|
----------------------|------------------------------|---------------------|



------------------|------------------|------------------|------------------|
------------------|------------------|------------------|------------------|
------------------|------------------|------------------|------------------|
------------------|------------------|------------------|------------------|
------------------|------------------|------------------|------------------|
------------------|------------------|------------------|------------------|



------------------|------------------|------------------|------------------|
------------------|------------------|------------------|------------------|
------------------|------------------|------------------|------------------|
------------------|------------------|------------------|------------------|
------------------|------------------|------------------|------------------|
------------------|------------------|------------------|------------------|



------------------|------------------|------------------|------------------|
------------------|------------------|------------------|------------------|
------------------|------------------|------------------|------------------|
------------------|------------------|------------------|------------------|
------------------|------------------|------------------|------------------|
------------------|------------------|------------------|------------------|



------------------|------------------|------------------|------------------|
------------------|------------------|------------------|------------------|
------------------|------------------|------------------|------------------|
------------------|------------------|------------------|------------------|
------------------|------------------|------------------|------------------|
------------------|------------------|------------------|------------------|



------------------|------------------|------------------|------------------|
------------------|------------------|------------------|------------------|
------------------|------------------|------------------|------------------|
------------------|------------------|------------------|------------------|
------------------|------------------|------------------|------------------|
------------------|------------------|------------------|------------------|



------------------|------------------|------------------|------------------|
------------------|------------------|------------------|------------------|
------------------|------------------|------------------|------------------|
------------------|------------------|------------------|------------------|
------------------|------------------|------------------|------------------|
------------------|------------------|------------------|------------------|



------------------|------------------|------------------|------------------|
------------------|------------------|------------------|------------------|
------------------|------------------|------------------|------------------|
------------------|------------------|------------------|------------------|
------------------|------------------|------------------|------------------|
------------------|------------------|------------------|------------------|



------------------|------------------|------------------|------------------|
------------------|------------------|------------------|------------------|
------------------|------------------|------------------|------------------|
------------------|------------------|------------------|------------------|
------------------|------------------|------------------|------------------|
------------------|------------------|------------------|------------------|



------------------|------------------|------------------|--------------------|
------------------|------------------|------------------|--------------------|
------------------|------------------|------------------|--------------------|
------------------|------------------|------------------|--------------3r----|
------------------|------------------|------------------|--------------------|
------------------|------------------|------------------|--------------------|



---------------------|------------------------|----------------------|
---------------------|------------------------|----------------------|
---------------------|------------------------|--5-----3----3--------|
--3b-----------3r--3b|-----3----3-------------|----------6-----------|
---------------------|--------6---3-3----6----|----------------------|
---------------------|------------------------|----------------------|



----------------------------|-----------------------------|------------------|
--3----4-3------------------|--4-4--------------------4h6~|------------------|
-------------5----5-5-5h3---|--------5--3-5~----5h3-------|------------------|
--------------------------6-|-----------------------5-----|------------------|
----------------------------|-----------------------------|------------------|
----------------------------|-----------------------------|------------------|



----------------------|----------------------3-|------3----3--------------|
----------------------|--3----4-3--------------|--------6----6--4---------|
--5----3--------------|-------------5~---------|------------------5~------|
---------6---5~-------|------------------------|--------------------------|
----------------------|------------------------|--------------------------|
----------------------|------------------------|--------------------------|



------15-15-15-15-----18-18b----|--------------18b---|
------------------18r-----------|--------------------|
--------------------------------|--------------------|
--------------------------------|--------------------|
--------------------------------|--------------------|
--------------------------------|--------------------|



--18----------------------|--------------------------|------8---------------|
--------18b---------------|--------------------------|--10----9-------------|
--------------------18r---|----17--15------------12--|----------------------|
-----------------20-------|------------12------------|----------------------|
--------------------------|--------------------------|----------------------|
--------------------------|--------------------------|----------------------|



------------------||
------------------||
------------------||
------------------||
------------------||
------------------||


Guitar 2

E||--6----------------|--4----------------|--1----------------|
B||--6----------------|--4----------------|--1----------------|
G||--7----------------|--5----------------|--2----------------|
D||--8----------------|--6----------------|--3----------------|
A||--8----------------|--6----------------|--3----------------|
E||--6----------------|--4----------------|--1----------------|



--3----------------|----------|---------x-x-3-3-----x-x-|
--3----------------|----------|---------x-x-4-4-----x-x-|
--4----------------|----------|--5------x-x-3-3-----x-x-|
--5----------------|----------|--5----------------------|
--5----------------|----------|-------------------------|
--3----------------|----------|-------------------------|



---------x-x-3/-5------|---------x-x-3-3-----x-x-|---------x-x-3/-5--------|
---------x-x-4/-6------|---------x-x-4-4-----x-x-|---------x-x-4/-6--------|
--5------x-x-3/-5------|--5------x-x-3-3-----x-x-|--5------x-x-3/-5------3/|
--5--------------------|--5----------------------|--5--------------------3/|
-----------------------|-------------------------|-------------------------|
-----------------------|-------------------------|-------------------------|



---------x--3-3-------|----------x-x-3/-5------|------------------------|
---------x--4-4-------|----------x-x-4/-6------|------------------------|
--5------x--3-3-------|--5-5-----x-x-3/-5------|--5----x----x-x-x--x----|
--5-------------------|--5-5-------------------|--5----x----x-x-x--x----|
----------------------|--3-3-------------------|--3----x----x-x-x--x----|
----------------------|------------------------|------------------------|



--------------------------|--3-3-3-3-3--x-x-x-x-x--x----|
--------------------------|--4-4-4-4-4--x-x-x-x-x--x----|
--3/-5----x-x-x-x--x-x----|--5-5-5-5-5--x-x-x-x-x--x----|
--3/-5----x-x-x-x--x-x----|--5-5-5-5-5--x-x-x-x-x--x----|
--1/-3----x-x-x-x--x-x----|-----------------------------|
--------------------------|-----------------------------|



--------------------3----|--6----------------|--1----------------|
--------------------4----|--6----------------|--1----------------|
--5------x-x-x-x-x--5----|--7----------------|--2----------------|
--5------x-x-x-x-x--5----|--8----------------|--3----------------|
--3------x-x-x-x-x--3----|--8----------------|--3----------------|
-------------------------|--6----------------|--1----------------|



----x--x-x-x-x-x--x--x--x--|--x--x--x--x-x-x-x-x-x-3/-5--|-----------3-3-------|
----x--x-x-x-x-x--x--x--x--|--x--x--x--x-x-x-x-x-x-4/-6--|-----------4-4-------|
----x--x-x-x-x-x--x--x--x--|--x--x--x--x-x-x-x-x-x-------|--5--------3-3-------|
---------------------------|-----------------------------|--5------------------|
---------------------------|-----------------------------|--3------------------|
---------------------------|-----------------------------|---------------------|



--------------------|-----------3-3-------|------------3-3-------|
--------------------|-----------4-4-------|------------4-4-------|
--5----5------------|--5--------3-3-------|--5-5-------3-3-------|
--5----5------------|--5------------------|--5-5-----------------|
--3----3------------|--3------------------|--3-3-----------------|
--------------------|---------------------|----------------------|



--6----------------|--1----------------|-------------3-3-------|
--6----------------|--1----------------|-------------4-4-------|
--7----------------|--2----------------|--5------x-x-3-3-------|
--8----------------|--3----------------|--5------x-x-----------|
--8----------------|--3----------------|--3------x-x-----------|
--6----------------|--1----------------|-----------------------|



-------------3-3---5-5---|--------------------|---------------------|
-------------4-4---6-6---|-----------8--------|-----------10--------|
--5------x-x-3-3---5-5---|--5--------8--------|--7--------10--------|
--5------x-x-------------|--6--------8--------|--8--------10--------|
--3----------------------|--6--------6--------|--8--------8---------|
-------------------------|--4-----------------|--6------------------|



----------------------------|------------------------------|
------------x-x-8-8-----x-x-|------------x-x-8-8/-10---x-x-|
------------x-x-8-8-----x-x-|------------x-x-8-8/-10---x-x-|
--10-10-----x-x-8-8-----x-x-|--10-10-----x-x-8-8/-10---x-x-|
--10-10---------------------|--10-10-----------------------|
--8--8----------------------|--8--8------------------------|



--------------------|---------------------|--------------------|
-----------8--------|-----------10--------|-----------8--------|
--5--------8--------|--7--------10--------|-----------8--------|
--6--------8--------|--8--------10--------|-----------8--------|
--6--------6--------|--8--------8---------|--------------------|
--4-----------------|--6------------------|--8-----------------|



--------------------------|----------------------|-------------6----5----|
-----------x-x-x-x-8/-10--|--4------------x-4--x-|--10-------x-6----6----|
-----------x-x-x-x-8/-10--|--5------------x-5--x-|--10-------x-7----5----|
-----------x-x-x-x-8/-10--|--5------------x-5--x-|--10-------x-8---------|
--------------------------|--3------------x-3--x-|--8--------x-8---------|
--8-----------------------|----------------------|-------------6---------|



-------------------------|--5-------x-6----5----|--------------------|
-------------------------|--6-------x-6----6----|--4--------4--------|
---------------8---------|--5-------x-7----5----|--5--------5--------|
---------------10--------|--3-------x-8---------|--5--------5--------|
--10/8-10------10--------|------------8---------|--3--------3--------|
--8/-6-8-------8---------|------------6---------|--------------------|



--5-------x-6----5----|---------------------|--5-------x-6----5----|
--6-------x-6----6----|--4--------4-4-------|--6-------x-6----6----|
--5-------x-7----5----|--5--------5-5-------|--5-------x-7----5----|
--3-------x-8---------|--5--------5-5-------|--3-------x-8---------|
------------8---------|--3--------3-3-------|------------8---------|
------------6---------|---------------------|------------6---------|



-------------------|-------------------|--------------------|
-------------------|-------------------|--------------------|
--5----------------|--7----------------|--8--------------8/-|
-------------------|-------------------|--------------------|
--3----------------|--5----------------|--6--------------6/-|
-------------------|-------------------|--------------------|



---------------------|----------------------|-------------3--4r---|
---------------------|----------------------|---------------------|
--10--------------7--|------6b-------5----3-|--5~-----------------|
---------------------|----------------------|---------------------|
--8------------------|----------------------|---------------------|
---------------------|----------------------|---------------------|



------3----3-------------------|-------------------------------|
---------4---4-3---2h3h2-------|-------------------------------|
-------------------------5--6--|--5/------------------0--------|
-------------------------------|-------3-0--3-2-1---1---2-3----|
-------------------------------|------------------3------------|
-------------------------------|-------------------------------|



---------------------|-------------------|------------8b-----|
---------------------|-------------------|-------------------|
--0------------------|-------------------|-------------------|
-----3--1------------|--------0----------|-------------------|
---------------------|-------------------|-------------------|
---------------------|-------------------|-------------------|



------------------|------------------|--------13------13------|
------------------|------------------|------------11----------|
------------------|------------------|------------------------|
------------------|------------------|------------------------|
------------------|------------------|------------------------|
------------------|------------------|------------------------|



--------------------------|----------------------------|-------------------|
--------------------------|----------------------------|-------------------|
----------12-12---12--10--|----------------------------|-------------------|
----------12-12-----------|----------------------------|-------------------|
--------------------------|--10----------10-10---10----|-------------------|
--------------------------|-----------10---------------|--8----------------|



------------------|------------------|--------------6----------|
------------------|------------------|--10----10----6----10----|
------------------|------------------|--10----10----7----10----|
------------------|------------------|--10----10----8----10----|
------------------|------------------|--8-----8-----8----8-----|
------------------|------------------|-------------------------|



-------------------|--------------6----------|-------------------------|
-------------------|--10----10----6----10----|-------------------------|
-------------------|--10----10----7----10----|-------------------------|
--5----------------|--10----10----8----10----|--8--10----------10-10---|
--3----------------|--8-----8-----8----8-----|--8--10----------10-10---|
-------------------|-------------------------|--6--8-----------8--8----|



--------------6----------|----------------------|---------------------|
--10----10----6----10----|--------------------1-|--3------------------|
--10----10----7----10----|----------------------|-------------------7/|
--10----10----8----10----|--10------------------|--0------------------|
--8-----8-----8----8-----|----------------------|-------------------5/|
-------------------------|--8-------------------|---------------------|



-------------------|-------------------|--------------------3------|
-------------------|-------------------|--------------------4------|
--8----------------|-------------------|--------5-----------3--3/5-|
-------------------|-------------------|--x--x--5----x-x--x--------|
--6----------------|-------------------|--x--x-------x-x--x--------|
-------------------|--------------6----|---------------------------|



--3----3----3----3----|--------------------|---------------------|
--4----4----4----4----|-----------8--------|-----------10--------|
--3----3----3----3----|--5--------8--------|--7--------10--------|
----------------------|--6--------8--------|--8--------10--------|
----------------------|--6--------6--------|--8--------8---------|
----------------------|--4-----------------|--6------------------|



--------------------------|--3-3---5-5---3/5---x-x-x--|--------------------|
--8-8---------------------|--4-----6-6---4/6---x-x-x--|-----------8--------|
--8-8---5--3/5-5------5-5-|--3-----5-5---3/5---x-x-x--|--5--------8--------|
--8-8---------------------|---------------------------|--6--------8--------|
---------------3------3-3-|---------------------------|--6--------6--------|
--------------------------|---------------------------|--4-----------------|



---------------------|--------------------------|--------------------------|
-----------10--------|--8----8--x-x-8----8/-10--|--8----8--x-x-8----8/-10--|
--7--------10--------|--8----8--x-x-8----8/-10--|--8----8--x-x-8----8/-10--|
--8--------10--------|--8----8--x-x-8----8/-10--|--8----8--x-x-8----8/-10--|
--8--------8---------|--------------------------|--------------------------|
--6------------------|--------------------------|--------------------------|



--------------------|--------------------|--------------------|
--------------------|--8------------8----|--------------------|
--5------------5----|--8------------8----|--7------------7----|
--6------------6----|--8------------8----|--8------------8----|
--6------------6----|--6------------6----|--8------------8----|
--4------------4----|--------------------|--6------------6----|



--1----------------|-------------------||
--1----------------|-------------------||
--2----------------|-------------------||
--3----------------|--5----------------||
--3----------------|--3----------------||
--1----------------|-------------------||


Friends Deep Purple
 
 
 
 
Написать администратору сайта
 
Lyrics-FLyrics-SLyrics-wLyrics-JLyrics-Z

Все песни  D_P

 

PRELUDE : HAPPINESS
HOLD ON
Pictures Of Home 7


 
Копирование материалов с сайта только с согласия автора или при устаноки ссылки на источник

Неофициальный сайт Deep Purple © 2005 - 2017