Menu Deep Purple
 



Lazy 2
(Blackmore/Gillan/Glover/Lord/Paice)
From "Machine Head", 1972
Bass Tablature
G||------------------|------------------|------------------|------------------|
D||------------------|------------------|------------------|------------------|
A||------------------|------------------|------------------|------------------|
E||------------------|------------------|------------------|------------------|

------------------|------------------|------------------|------------------|
------------------|------------------|------------------|------------------|
------------------|------------------|------------------|------------------|
------------------|------------------|------------------|------------------|

------------------|------------------|------------------|------------------|
------------------|------------------|------------------|------------------|
------------------|------------------|------------------|------------------|
------------------|------------------|------------------|------------------|

------------------|------------------|------------------|------------------|
------------------|------------------|------------------|------------------|
------------------|------------------|------------------|------------------|
------------------|------------------|------------------|------------------|

------------------|------------------|------------------|------------------|
------------------|------------------|------------------|------------------|
------------------|------------------|------------------|------------------|
------------------|------------------|------------------|------------------|

------------------|------------------|------------------|------------------|
------------------|------------------|------------------|------------------|
------------------|------------------|------------------|------------------|
------------------|------------------|------------------|------------------|

------------------|------------------|------------------|------------------|
------------------|------------------|------------------|------------------|
------------------|------------------|------------------|------------------|
------------------|------------------|------------------|------------------|

------------------|------------------|------------------------|
------------------|------------------|------------------------|
------------------|------------------|------------------------|
------------------|------------------|------------------------|

------------------|------------------|------------------|------------------|
------------------|------------------|------------------|------------------|
------------------|------------------|------------------|------------------|
------------------|------------------|------------------|------------------|

------------------|------------------|------------------|------------------|
------------------|------------------|------------------|------------------|
------------------|------------------|------------------|------------------|
------------------|------------------|------------------|------------------|

------------------|------------------|------------------|------------------|
------------------|------------------|------------------|------------------|
------------------|------------------|------------------|------------------|
------------------|------------------|------------------|------------------|

-------------------|------------------|------------------|-------------------|
-------------------|------------------|------------------|-------------------|
-------------------|------------------|------------------|-------------------|
----------------1--|------------------|------------------|----1--------------|

-------------------|-------------------|---------------------|
-------------------|-------------------|---------------------|
--1----------------|--1----------------|---------------------|
-------------------|-------------------|--1------------1/-3--|

-------------------|--------------|-------------------|------------------|
-------------------|--------------|-------------------|------------------|
-------------------|--------------|-------------------|------------------|
--1----------------|--------------|----1--------------|------------------|

-------------------|-------------------|---------------------|
-------------------|-------------------|---------------------|
-------------------|----------------3--|----3----3----3------|
----1--------------|-------------------|---------------------|

--------------------------|----------------------------|
--------------------------|----------------------------|
--------------------------|------------------1---------|
--1--1--1--1--1--1--1--1--|--1--1--1--1--1-4---4-1--1--|

-------------------------|----------------------------|
-------------------------|----------------------------|
--1--1--1-----1--1--1----|-----------------1-3-1------|
-----------4-------------|--1--1--1----1-4-------4-2--|

---------------------------|--------------------------|
--------------1------------|--------------------------|
----------3-4-----------1--|------------1-3-1---------|
--4--4--4---------3--4-----|--1--1--1-4-------3-------|

-------------------------|-------------------------------|
-------------------------|----------3-1------------------|
-------------------------|------1-3-----3-1-3--3-1-------|
--1--1--1----1--1--1-4---|--1-4--------------------1--1--|

----------------------|------------------------|-------------------------|
----------------------|------------------------|-------------------------|
--1--------------1----|------------------------|----------------1--------|
---------0--1---------|--1--1--4----1--1--4----|--4--4--4--4-------4--3--|

---------------------------|------------------------------|
----------------3----------|------------------------------|
------------1-3----1-3-----|------------------1---1---1---|
--1--1--1-4----------------|--1--1--1-4---1-4---4---4---4-|

-----------------------------|-------------------------|
-----------------------------|-------------------------|
--1---1---1------------------|--1--1--1-----1--1--1----|
----4---4---4-1--1--1--1--1--|-----------4-------------|

-------------------------|--------------------------|--------------------------|
-------------------------|-----------0--1-----------|--------------------------|
-------------------------|-----3--4--------1--------|------------1---1---------|
--1--1--1----1--1--1--3--|--4-----------------4--3--|--1--1--1-4---4----4------|

--------------|-------------------|------------------|-------------------|
--------------|-------------------|------------------|-------------------|
--------------|-------------------|------------------|-------------------|
--------------|----1--------------|------------------|----1--------------|

-------------------|---------------------|--------------------------|
-------------------|---------------------|--------------------------|
----------------3--|----3----3----3------|--------------------------|
-------------------|---------------------|--1--1--1--1--1--1--1--1--|

----------------------------|-------------------------|
----------------------------|-------------------------|
------------------1---------|--1--1--1-----1--1--1----|
--1--1--1--1--1-4---4-1--1--|-----------4-------------|

----------------------------|---------------------------|
----------------------------|--------------1------------|
-----------------1-3-1------|----------3-4-----------1--|
--1--1--1----1-4-------4-2--|--4--4--4---------3--4-----|

--------------------------|--------------------------|
--------------------------|--------------------------|
------------1-3-1---------|--------------------------|
--1--1--1-4-------3-------|--1--1--1--1--1--1--1-4---|

-------------------------------|-----------------------|
----------3-1------------------|-------1---------------|
------1-3-----3-1-3--3-1-------|--1--------------1-----|
--1-4--------------------1--1--|----------0--1---------|

------------------------|-------------------------|---------------------------|
------------------------|-------------------------|----------------3----------|
------------------------|----------------1--------|------------1-3----1-3-----|
--1--1--4---1--1--4-----|--4--4--4--4-------4--3--|--1--1--1-4----------------|

------------------------------|-----------------------------|
------------------------------|-----------------------------|
------------------1---1---1---|--1---1---1------------------|
--1--1--1-4---1-4---4---4---4-|----4---4---4-1--1--1--1--1--|

--------------------------|--------------------------|
--------------------------|--------------------------|
--1--1--1-----1--1--1-----|--------------------------|
-----------4-----------4--|--1--1--1--1--1--1--1--3--|

--------------------------|--------------------------|--------------|
-----------0--1-----------|--------------------------|--------------|
-----3--4--------1--------|------------1---1---------|--------------|
--4-----------------4--3--|--1--1--1-4---4----4------|--------------|

-------------------|------------------|-------------------|-------------------|
-------------------|------------------|-------------------|-------------------|
-------------------|------------------|-------------------|----------------3--|
----1--------------|------------------|----1--------------|-------------------|

----------------------|-----------------------|--------------------------|
----------------------|----0----0----0---0----|--------------------------|
----3----3----3---3---|-----------------------|--------------------------|
----------------------|--------------------1--|--3--3--3--3--3--3--3--3--|

--------------------------|---------------------------|
--------------------------|---------------------------|
--------------------------|--3--3--3--3--3--3--3--3---|
--3--3--3--3--3--3--3--3--|-------------------------1-|

--------------------------|--------------------------|------------------------|
--------------------------|--------------------------|------------------------|
--------------------------|--1--1--1--1--------------|------------------------|
--3--3--3--3--3--3--3--3--|--------------1--1--1--1--|--3--3--3--3--3--3------|

---------------------------|--------------------------|
---------------------------|--------------------------|
---------------------------|--------------------------|
--3--3--3--3--3--3--3--1-2-|--3--3--3--3--3--3--3--3--|

---------------------------|---------------------------|
---------------------------|---------------------------|
--3--3--3--3--3--3--3--3---|-------------------------1-|
-------------------------1-|--3--3--3--3--3--3--3--3---|

---------------------------|------------------------|--------------------------|
---------------------------|------------------------|--------------------------|
--1--1--1--1-0----0--1--3--|------------------------|-----------------------1--|
---------------1-----------|--3--3--3-1---3-1-------|--3--3-1---1--3--3-1------|

--------------------------|------------------------|
--------------------------|------------------------|
--------------------------|------------------------|
--3--3-1---1--3--3-1---3--|--3----1--2--3--1--3----|

------------------------------|--------------------------|
------------------------------|--------------------------|
-----------1------------------|--1--1--1--1--------------|
--3--3-1-3---3-1-3--3-1--1-3--|--------------1--1--1--1--|

------------------------|------------------------------|
------------------------|------------------------------|
------------------------|---------------------------1--|
--3--3--3-1---3-1-------|--3--3--1----1--3--3--1-------|

--------------------------------------|----------------------------|
--------------------------------------|----------------------------|
-----1--1--------0--0--1--1--0--0-----|--------------0-0-1-1-3-1---|
--3--------3--3--------------------3--|--3-1---1--3----------------|

----------------------------|---------------------------|
----------------------------|--------0-0-3--------------|
------------------1---------|--1--1------------3--1-----|
--3-3-1----1--3-3----3-3-3--|---------------1--------1--|

--------------------------|------0--------------0----------|
--------------------------|--------0-3----0-------0-3----0-|
--------------------------|-------------3--------------3---|
--3--3--3--3--3--3--3--3--|--3-3------------3-3------------|

------0--------------0---------|------5-0-3----0-----5-0-3----0-|
--------0-3----0-------0-3--0--|-------------3--------------3---|
-------------3-----------------|--3-3------------3-3------------|
--3-3------------3-3-----------|--------------------------------|

------0--------------0----------|--3--------------2--3--4--|
--------0-3----0-------0-3----0-|-----0--1--2--3-----------|
-------------3--------------3---|--------------------------|
--3-3------------3-3------------|--------------------------|

-----0------------0----------|------0--------------0----------|
-------0-3----0-----0-3----0-|--------0-3----0-------0-3----0-|
------------3------------3---|-------------3--------------3---|
--3--------------------------|--3-3------------3-3------------|

------0--------------0---------|------5-0-3----0-----5-0-3----0-|
--------0-3----0-------0-3--0--|-------------3--------------3---|
-------------3-----------------|--3-3------------3-3------------|
--3-3------------3-3-----------|--------------------------------|

------0--------------0----------|--3--------------2--3--4--|
--------0-3----0-------0-3----0-|-----0--1--2--3-----------|
-------------3--------------3---|--------------------------|
--3-3------------3-3------------|--------------------------|

------0-------------0---------|--------------------------|--------------------|
--------0-3-----------0-3-----|--------------------------|--------------------|
-------------3----------------|--0--0--0--0--0--0--0--0--|--0--0--0--0--0--0--|
--3-3-----------3-3--------3--|--------------------------|--------------------|

--------------------------|--------------------------|
--------------------------|--------------------------|
--0--0--0--0--0--0--0--0--|--0--0--0--0--0--0--0--0--|
--------------------------|--------------------------|

--------------------------|--------------------------|
--------------------------|--------------------------|
--------------------------|-----------------0--1--2--|
--0--0--0--0--0--0--0--0--|--0--1--2--3--4-----------|


Friends Deep Purple
 
 
 
 
Написать администратору сайта
 
Lyrics-FLyrics-SLyrics-wLyrics-JLyrics-Z

Все песни  D_P

 

February/March 1968
Mary Long
June to December 1974


 
Копирование материалов с сайта только с согласия автора или при устаноки ссылки на источник

Неофициальный сайт Deep Purple © 2005 - 2017