Menu Deep Purple
 



Lazy 3 (Bass)
(Blackmore/Gillan/Glover/Lord/Paice)
From "Machine Head", 1972
A INTRO ORGAN 1:17 hi-hat enters guitar starts main riff
|-------------------|----------------|-------------------------|-----------|------------------|
|-------------------|----------------|-------------------------|-----------|------------------|
|-------------------|----------------|-------------------------|-----------|------------------|
|-------------------|----------------|-------------------------|--------1--|------------------|
|-------------|--------------------|-----------------------|-----------|----------------------|
|-------------|--------------------|-----------------------|-----------|----------------------|
|-------------|--------------------|-----------------------|-----------|----------------------|
|--------(1)--|--------------------|-----------------------|--------1--|----------------------|
|-----------|-------------------|-----------|--------------|-----------|--------------|
|-----------|-------------------|-----------|--------------|-----------|--------------|
|--------1--|-------------------|--------1--|--------------|-----------|--------------|
|-----------|-------------------|-----------|--------------|--------1--|--------1--3--|
B%
|-----------|-----------------|-------------|-----------|-------------|----------------|
|-----------|-----------------|-------------|-----------|-------------|----------------|
|-----------|-----------------|-------------|-----------|-------------|----------------|
|--------1--|-----------------|-------------|--------1--|--------(1)--|----------------|
|--------------|---------------|--------------|-----------|------------|---------------|
|--------------|---------------|--------------|-----------|------------|---------------|
|--------------|---------------|--------------|-----------|------------|---------------|
|--------------|---------------|--------------|--------1--|------------|---------------|
(3rd time) to CODA 2 (2nd time) to CODA 1 C 1st guitar solo
|---------------------|--------------|-----------------------|--------------------|
|---------------------|--------------|-----------------------|--------------------|
|---------------------|--------------|-----------------6--7--|-----8---8---8---6--|
|-----------------8---|--------8--8--|---------8---8---------|--------------------|
|--------------------|------------------------|----------------------------|
|--------------------|------------------------|---------6---8---6----------|
|-----8---8---8---6--|-----8---8---8---6---6--|-----8---------------8---6--|
|--------------------|------------------------|----------------------------|
|------------------------|-----------------------|-----------------------------|
|------------------------|-----------------------|-----------------------------|
|------------------------|-----------------------|--------------------5--6--7--|
|------6--6--6--6--6--4--|-----6--6--6--6--6--4--|-----6--6--6--6--6-----------|
|--------------------------------|--------------5--------------|---------------5--6--8--|
|--------------------6-----------|--------6--8-----8--6--------|---6--6--5--6-----------|
|-----8--8--8--8--8-----6---(7)--|-----8-----------------8--6--|------------------------|
|--------------------------------|-----------------------------|------------------------|
|--------------------|------------------5--|-----------------------|-------------------|
|-----5--5--6--8--6--|------------6--8-----|--8--6-----------------|-------------------|
|--6-----------------|---8--8--8-----------|--------8--------------|--(8)--8--6--8--6--|
|--------------------|---------------------|-----------8-----(8)/--|-------------------|
|--------------------|-----------5--1O--8---------|-----------------------------|
|-----------6--------|-----6--8------------1O--8--|--9--1O--8--6----------------|
|--8--8--8-----6--7--|--8-------------------------|---------------8--(6)--8-----|
|--------------------|----------------------------|--------------------------6--|
|-----------------|-----------------|-----------------|-----------------|-----------------|
|-----------------|-----------------|--------5--6-----|-----5--5--6-----|--6--6--6--6--5--|
|-----5--6--7--7--|--8--6--5-----5--|--8--8--------6--|--8-----------8--|-----------------|
|--6--------------|-----------6-----|-----------------|-----------------|-----------------|
|-----------------------|--------------------|--1O-----------------|--------------------|
|-----8--8--6--6--5--6--|--------------6--8--|------8--1O---(1O)/--|-----------6--------|
|--6--------------------|--8--8--8--8--------|---------------------|--8--8--8-----6--7--|
|-----------------------|--------------------|---------------------|--------------------|
|-----------------5-------|-----------------------|--------------------------|
|-----6--8--6--8----8--6--|--8--8--6--8-----------|--------------------------|
|--8----------------------|--------------8--8--8--|--8--8--8--8--8--8--8-----|
|-------------------------|-----------------------|-----------------------6--|
|-----------------------|-----------------|-----------------|--------------|
|-----------------------|-----------------|-----------6-----|-----------5--|
|-----------------------|--------------6--|--8--8--8-----6--|--8--8--8-----|
|--6--6--6--6--6--4--4--|--6--6--6--6-----|-----------------|--------------|
D.S.% al CODA 1
|-----5--5--6--6--7--|--8--X--------------------|-----------------------|----------------|
|--6-----------------|--------8--8--6--6--5--6--|--------------6--8--6--|--6--6----------|
|--------------------|--------------------------|--8--8--8--8-----------|--------8-------|
|--------------------|--------------------------|-----------------------|-----------8----|
CODA 1
D ORGAN SOLO
|----------------------|----------------------|-----------5--5--5--------|--------------|
|----------------------|----------------------|-----6--8-----------8--8--|--6-----------|
|--8--8--8-------6--7--|--8--8--8--8--6--(8)--|--8-----------------------|-----8--6--8--|
|-----------(8)--------|----------------------|--------------------------|--------------|
|-----------------|-----------------|--------------------|-----------5-----------|
|--------------3--|-----------------|--------------6-----|-----6--8-----8--6-----|
|-----4--6--6-----|--6--4--------4--|--8--8--8--8-----6--|--8-----------------8--|
|--6--------------|--------6--6-----|--------------------|-----------------------|
|--------------6--8--|--------------------------|----------------------|--------------|
|--6--6--5--6--------|--------5--5--6--6--7--7--|-----------6--8--(6)--|--8--6--------|
|--------------------|--6--6--------------------|--8--8--8-------------|--------8-----|
|--------------------|--------------------------|----------------------|-----------8--|
|--------------------|-----------------|-----------------|-----------------|-----------------|
|--------------------|-----------------|-----------------|-----6-----------|-----------3--3--|
|--8--8--8--8--6--8--|--8--8--8--8-----|--8--8--8--8-----|--8-----8--6--8--|-----4--6--------|
|--------------------|--------------8--|--------------8--|-----------------|--6--------------|
|--------------------|-----------------|------------------|-----------------|
|--------------------|-----------6-----|------------6-----|--6--6--6--6--6--|
|--6--6--4-----4--6--|--8--8--8-----6--|---8--8--8-----8--|-----------------|
|-----------6--------|-----------------|------------------|-----------------|
|-----------------------|-----------------5--|--------------|----------------|
|--------5--6--8--6--5--|-----------6--8-----|--8--6--------|----------------|
|--6--6-----------------|--8--8--8-----------|--------8-----|--8--(8)--8--6--|
|-----------------------|--------------------|-----------8--|----------------|
|-----------------------|----------------------------|--------------------------|
|-----------------------|-----6--1O--1O--9--9--8--8--|--6--6--------------------|
|--8--8--8--8--8--8--6--|--8-------------------------|--------8--8--6--6--------|
|-----------------------|----------------------------|--------------------8--8--|
|--------------------------|--------------------|--------------1O--8--|-------------------|
|--------------------------|--------------------|---------------------|--1O--8------------|
|--------------------------|-----------4--6--6--|--8--8--8--8---------|---------11--8--8--|
|--6--6--6--6--6--6--4--6--|--6--6--6-----------|---------------------|-------------------|
D.S.% al CODA 2
|-----------------------|--------------------------|-----------------------|---------------|
|--6--6--5--6--5--6--5--|--------------------------|-----------------------|---------------|
|-----------------------|--6--6--6--6--6--6--6--6--|--8--8--8--8--8--8--8--|--8--6---------|
|-----------------------|--------------------------|-----------------------|--------8--8---|
CODA 2 you're lazy
|------------|--------|--------|--------------|
|------------|--------|--------|--------------|
|------------|--------|--5--5--|--5--5--5--5--|
|------8--8--|--8--8--|--------|--------------|
E 1st verse
you just stay...
drownin'... you don't clutch...
|-----------------------|-----------------------|--------------------------|
|*-5--5--5--5--5--5--5--|--5--5--5--5--5--5--5--|--5--5--5--5--5--5--5--5--|
|*----------------------|-----------------------|--------------------------|
|-----------------------|-----------------------|--------------------------|
|--------------------------|--------------------|--------------------------|
|--5--5--5--5--5--5--5-----|--------------------|-----------------------5--|
|--------------------------|--------------------|--------------------------|
|-----------------------8--|--8--8--8--8--8--8--|--8--8--8--8--8--8--8-----|
1.________________________
|--------------------------|-----------------------|--------------------------|
|--5--5--5--5--5--5--5--5--|--5--5--5--5--5--5--5--|--8--8--8--8--8--8--8--7--|
|--------------------------|-----------------------|--------------------------|
|--------------------------|-----------------------|--------------------------|
if you're
1._____________________________________________________________________
|--------------------------|--------------------------|----------------|
|--------------------------|--5--5--5--5--5--5--5--5--|--5--5--5-----*-|
|--8--8--8--8--8--8--8--8--|--------------------------|-----------5--*-|
|--------------------------|--------------------------|----------------|
2.__________________________
|---------------------------|--------------------5-----|-----------------------|--------------|
|--8--8--8--8--8--8--8--7---|--------7--7--8--8-----8--|--5--5--5--5--5--3-----|--5--3--------|
|---------------------------|--8--8--------------------|--------------------5--|--------4--5--|
|---------------------------|--------------------------|-----------------------|--------------|
F HARMONICA SOLO
|----------------------------|-----------------3--|-------------------------|
|--5--(3)--5--3--------3--4--|--5--5--3-----3-----|--5--(3)--5--3-----3--4--|
|----------------5--5--------|-----------5--------|----------------5--------|
|----------------------------|--------------------|-------------------------|
|--------------------------|-----------------------|----------------------|-----------------3---|
|--5--5--5--3-----3--5--3--|--------2--2--3--4--4--|--5--5--3--1----1--3--|--5--5--5--5--5-----3|
|--------------5-----------|--3--3-----------------|--------------3-------|---------------------|
|--------------------------|-----------------------|----------------------|---------------------|
|--------------------------|-----------------|-----1O--8-----------------|----------------------|
|--5--5--5--3-----5--5--5--|--8--8--8--8--7--|------------1O--8--7-------|--5--5--5--5--3-------|
|--------------5-----------|-----------------|--8-------------------(8)--|-----------------5--5-|
|--------------------------|-----------------|---------------------------|----------------------|
|--------------|-----------------|-----------------3--3--|-----3--3--------2--2--|
|--5--3--------|--5--5--3-----3--|--5--5--5--3-----------|--5--------5--5--------|
|--------5--5--|-----------5-----|--------------5--------|-----------------------|
|--------------|-----------------|-----------------------|-----------------------|
|--3--3--2--2-----------|-----------------|--2--3--3--5--5--3--3--|-----------------|
|--------------5--5--3--|--------1--3--5--|-----------------------|--5--3-----3--4--|
|-----------------------|--3--3-----------|-----------------------|--------5--------|
|-----------------------|-----------------|-----------------------|-----------------|
|--------3--3---------|-----------7--7--1O--1O--|----------------------|-----------------|
|--5--5------5--5--5--|--8--8--8----------------|-----1O--1O--8--7-----|--5--5--5--5--5--|
|---------------------|-------------------------|--8----------------8--|-----------------|
|---------------------|-------------------------|----------------------|-----------------|
G 2nd VERSE
cryin'...
lazy...
|--------------------|---------------------|--------------------|--------------------|
|--5--5--5--5--5--5--|*-----5--X--3--------|-----5-----3--------|-----5-----3--------|
|--------------------|*--------------3--5--|--------5-----3--5--|--------5-----3--5--|
|--------------------|---3-----------------|--3-----------------|--3-----------------|
|--------------------|-----5-----3--------|-----5-----3--------|--------------------|
|-----5-----3--------|--------5-----3--5--|--------5-----3--5--|-----5-----3--------|
|--------5-----3--5--|--3-----------------|--3-----------------|--------5-----3--5--|
|--3-----------------|--------------------|--------------------|--3-----------------|
|-----------------|--------------------------|--------2--2--3--3--4--3--|-----------------|
|-----5-----3-----|--------O--O--1--1--2--2--|--3--3--------------------|-----5-----3-----|
|--------5-----5--|--1--1--------------------|--------------------------|--------5-----3--|
|--3--------------|--------------------------|--------------------------|--3--------------|
1.__________________ 2._________________ H
|-------------------|-------------------|--------------------------|--------------------------|
|-----5-----3-----*-|--5--5-------------|--7--7--7--7--7--7--7--7--|*-7--7--7--7--7--7--7--7-*|
|--5-----5-----5--*-|--------8--5--3/5--|--------------------------|*------------------------*|
|-------------------|-------------------|--------------------------|--------------------------|
(play 3 times)
|--------------|--------------------------|--------------------------|--------------|
|--7--7--7--7--|*-7--7--7--7--7--7--7--7-*|--7--7--7--7--7--7--7--5--|--------------|
|--------------|*------------------------*|--------------------------|--------------|
|--------------|--------------------------|--------------------------|--O--O--O--O--|
I 2nd GUITAR SOLO
|--------------|--------------|---------------|---------------|------------------|
|--------------|--------------|---------------|*----7--5-----*|-----7-----5-----*|
|-----------7--|--7--6--5--4--|--3--2--1------|*----------5--*|--------7-----5--*|
|--O--O--O-----|--------------|-----------6\--|--5------------|--5---------------|
|-----7-----5---------|-----------------|--------------|--------------|-----4--5--6--|
|*-------7-----5--7--*|--7--7--X--5-----|-----7--5-----|-----2--3--4--|--5-----------|
|*-5-----------------*|--------------5--|-----------7--|--3-----------|--------------|
|---------------------|-----------------|--5-----------|--------------|--------------|
(play 3 times)
|-------------------|-----------------|------7-----5---------|-----------------|
|*-----7-----5-----*|-----7-----5-----|*--------7-----5--7--*|-----7-----5-----|
|*--------7-----5--*|--------7-----7--|*--5-----------------*|--------7-----5--|
|---5---------------|--5--------------|----------------------|--5--------------|
|-----------------|--------------|--------4--4--5--5--6--6--|-----------------|
|-----7-----5-----|--------3--4--|--5--5--------------------|-----7--5-----7--|
|--------7-----7--|--3--7--------|--------------------------|-----------7-----|
|--5--------------|--------------|--------------------------|--5--------------|
|----------------------|--------------------------|--------------------------|
|--(7)--5--------------|--------------------------|--------4--4--5--5--6--6--|
|----------7--7--7--7--|--------3--3--5--5--6--6--|--7--7--------------------|
|----------------------|--5--5--------------------|--------------------------|
|--------6--6--7--7--8--8--|--9--9--11--11--12--12--11--5--|-----------------------|
|--7--7--------------------|-------------------------------|-----------5--5--6--6--|
|--------------------------|-------------------------------|--5--6--6--------------|
|--------------------------|-------------------------------|-----------------------|
|--------4--4--5--5--4--4--|--------------------------|-----------------|--------------------|
|--7--7--------------------|--7--7--5--5--------------|-----------------|-----2--3--3--4--4--|
|--------------------------|--------------7--7--5--5--|--3--3-----3--5--|--3-----------------|
|--------------------------|--------------------------|--------5--------|--------------------|
|--------4--4--5--5--7\--|--------------------|--------------------|--------------------------|
|--5--5------------------|--7--5--------------|--5--7--5-----------|--------2--2--3--3--4--4--|
|------------------------|--------7--5--7--7--|-----------7--5--7--|--3--3--------------------|
|------------------------|--------------------|--------------------|--------------------------|
J OUTRO
|--------4--4--5--5--6--6--|---------|--------------------9-----7--8--9--|
|--5--5--------------------|--7------|--------6--7--8--9-----9-----------|
|--------------------------|---------|--7--7-----------------------------|
|--------------------------|---------|-----------------------------------|
|--7--------------5--4-----|-------------------------------------|-----------|-----|-----|----|
|-----4--5--6--7--------5--|--7--7------7---------7--------7-----|-----------|-----|-----|----|
|--------------------------|--------1O-----1O--9-----9--8-----8--|--7--------|-----|-----|----|
|--------------------------|-------------------------------------|-----6--5--|-----|-----|----|


Friends Deep Purple
 
 
 
 
Написать администратору сайта
 
Lyrics-FLyrics-SLyrics-wLyrics-JLyrics-Z

Все песни  D_P

 

November 1993 to September 1994
April 1966 till later the same year
1981 and/or 1982


 
Копирование материалов с сайта только с согласия автора или при устаноки ссылки на источник

Неофициальный сайт Deep Purple © 2005 - 2017