Menu Deep Purple
 



Lazy 7
(Blackmore/Gillan/Glover/Lord/Paice)
From "Machine Head" 1972.
|In the organ solo...-----1:17-------- ---1:20|
|------------------------------------- -8-----|
|--------------------9 increase volume -7-----|
|--------------------9---------------- -7-----|
|--------------------7---------------- -9-----|
|------------------------------------- -------|
|1:24-------Arpeggio finish at|
|-------------------------1:26|
|----------2------------------|
|(7-3)----3-------------------|
|(7-3)---3--------------------|
|(9-1)--1---------------------|
|1:30----|
|----12--|
|----10--|
|--------|
|--------|
|--------|
|1:38----1:40-----------|
|-----------------------|
|-----------------------|
|(1-3sss)-----(1-3sssss)|
|-----------------------|
|-----------------------|

Intro - Riff
Note: Maibe the intro is wrong
|-----------------------------------|
|--------------------------------5>>|
|------1----3-1-/---1----3-1--------|
|(1-3)---3------/-3---3------3------|
|-----------------------------------|
|-----------------------------------|
|---------------------------------|
|5-3---3--3-2---------------------|
|----5-------5-3--5--3-2----------|
|------------------------5-3-5-3--|
|--------------------------------5|
|---------------------------------|
|-----------------------------|
|-----------------------------|
|-----------------------------|
|------1----3-1-/---1----3-1--|
|(1-3)---3------/-3---3------3|
|-----------------------------|
|--------------------------|
|--------------------------|
|----------------3-1-------|
|------------1-3----3-1----|
|3-1---1--1-3----------3-1-|
|----3--------------------2|

This Riff Is played by blackmore
in the solos (Guitar - Keyboard - Harmonica)
|-----------------------------|
|-----------------------------|
|-----------------------------|
|-----------------------------|
|9-7-9---9-7-9---9-7-9---9-7-9|
|-----------------------------|
|--------------|
|--------------|
|--------------|
|--7<-------7<-|
|9----9---9----|
|--------------|
|-------------|
|-------------|
|-------------|
|-------------|
|9-7-9---9-7-9|
|-------------|
|---------|----------|
|---------|----------|
|---------|----------|
|7---6---5|------7sss|
|---------|-(7=9)----|
|---------|----------|
Alternative Riff
(Blackmore play it in a improvosation
whit the end of song behind the vocals
of Gillan
here is the example
5:27
|-----------------------------------|---------------|-------|
|-----------------------------------|---------------|-------|
|-----------------------------------|---------------|-------|
|-----------------------------------|-------7-------|7ss-6ss|
|9-7-9--9-7-9--9-7-9--9-7-9---------|9-7-9----9--7-9|-------|
|-----------------------------------|---------------|-------|
I said my trying ain't done no good
VOCALS:
You're lazy just stay in bed
You're lazy just stay in bed
You don't want no money
You don't want no bread
If you're drowning you don't clutch no straw
If you're drowning you don't clutch no straw
You don't want to live you don't want to cry no more
Well my trying ain't done no good
I said my trying ain't done no good
You don't make no effort no not like you should
Lazy you just stay in bed
Lazy you just stay in bed
You don't want no money
You don't want no bread



Friends Deep Purple

 
 
 
Написать администратору сайта
 
Lyrics-FLyrics-SLyrics-wLyrics-JLyrics-Z

Все песни  D_P

 

During 2002/2003
July 1969 to June 1973
NO NO NO


 
Копирование материалов с сайта только с согласия автора или при устаноки ссылки на источник

Неофициальный сайт Deep Purple © 2005 - 2021