Menu Deep Purple
 



Maybe I'm A Leo 1
(Blackmore/Gillan/Glover/Lord/Paice)
From "Machine Head", 1972
.b-BEND
Intro:
e-------------------------------------------------------------------------------------------------------------------
B------------------------------------------------------------------------------------------------------------------
D------------------------------------------------------------------------------------------------------------------
G---3--3/1-----1--3--5b--3--3--3/1-----1--3--8b--6-----------------------1-------------------1--2---
A-------------3----------------------------3-------------------3--3/1-----1--3-----3--3--3/1------1--2---
E-------------------------------------------------------------------------3--------------------------3-----------
e------------------------------------------------------------------------------------------------------------------
B-----------------------------------------------------------------------------------------------------------------
D-----------------------------------------------------------------------------------------------------------------
G---3--3/1-----1--3--5b--3--3--3/1-----1--3--8b--6----------------------1--------------------1-----
A-------------3----------------------------3-------------------3--3/1-----1--3-----3--3--3/1---------1--
E-------------------------------------------------------------------------3---------------------------3---------
Peeping round the door, I got a big suprise.
e-----------------------------------------------------------------------------------------------------------------
B-----------------------------------------------------------------------------------------------------------------
D-----------------------------------------------------------------------------------------------------------------
G---5--3/1-----1--3----------5--3/1------1----------------------------------------------------------------
A-------------3---------1--3-------------3-------1------------------------------------------------------------
E-----------------------------------------------------------------------------------------------------------------
Repeat that same little riff every pause in lyrics.


Friends Deep Purple
 
 
 
 
Написать администратору сайта
 
Lyrics-FLyrics-SLyrics-wLyrics-JLyrics-Z

Все песни  D_P

 

HARD LOVING MAN
August to December 1986
September 1969


 
Копирование материалов с сайта только с согласия автора или при устаноки ссылки на источник

Неофициальный сайт Deep Purple © 2005 - 2017