Menu Deep Purple
 



Maybe I'm A Leo 1
(Blackmore/Gillan/Glover/Lord/Paice)
From "Machine Head" 1972.
Intro (riff)
Fm Cm Eb E
-----|-----------------|-----------------|-----------------|-----------------|
-----|-----------------|-----------------|-----------------|-----------------|
-----|------------1----|------------3-1--|-----------------|-----------------|
-----|-3-3-1--1-3---3--|-3-3-1--1-3------|------------1----|-----------------|
-----|------3----------|------3----------|-3-3-1--1-3---3--|-3-3-1--1---2----|
-----|-----------------|-----------------|------3----------|------3----------|
Fm Cm Eb Bb
-----|-----------------|-----------------|-----------------|-----------------|
-----|-----------------|-----------------|-----------------|-----------------|
-----|------------1----|------------3-1--|-----------------|-----------------|
-----|-3-3-1--1-3---3--|-3-3-1--1-3------|------------1----|--------1--------|
-----|------3----------|------3----------|-3-3-1--1-3---3--|-3-3-1------1----|
-----|-----------------|-----------------|------3----------|------3----------|


Fm Cm Eb Bb Cm
Cm
Peeping round the door, I got a big surprise
Bb Cm Eb Bb Fm
-----|-----------------|-----------------|-1-
-----|-----------------|-----------------|-1-
-----|-0---------------|-0---------------|-1-
-----|---3-1--1-3------|---3-1--1--------|-3-
-----|------3-----1-3--|------3-----1----|-3-
-----|-----------------|-----------------|-1-
Fm
Couldn't see a thing, but open skies
Bb Cm Eb Bb G7
-----|-----------------|-----------------|-3-
-----|-----------------|-----------------|-3-
-----|-0---------------|-0---------------|-4-
-----|---3-1--1-3------|---3-1--1--------|-3-
-----|------3-----1-3--|------3-----1----|-5-
-----|-----------------|-----------------|-3-
G7 F Eb Bb Cm
They've taken her away, where is she now
Verse 2
Wish that she was here, I wish she'd hold my hand
Maybe she would laugh, maybe understand
Why was I so cruel, where is she now
Guitar solo: Cm
Organ solo: Cm
Riff
Verse 3
Acting like a fool, I had to make her cry
Maybe I'm a Leo, but I ain't a lion
I'm hurting oh so bad, I want her now
Riff (second guitar solo)


Friends Deep Purple
 
 
 
 
Написать администратору сайта
 
Lyrics-FLyrics-SLyrics-wLyrics-JLyrics-Z

Все песни  D_P

 

Smoke On The Water 4
from SECOND MOVEMENT: Voice Late 1996 to April 1997


Ограждения газонов, площадок - парковочное ограждение.
 
Копирование материалов с сайта только с согласия автора или при устаноки ссылки на источник

Неофициальный сайт Deep Purple © 2005 - 2017