Menu Deep Purple
 



Maybe I'm A Leo 2
(Blackmore/Gillan/Glover/Lord/Paice)
From "Machine Head", 1972
Bass Tablature
q q e e s s e e e e q
G-------------r--r--|------r--------------------1-----|-----
D---2:--------e--e--|--4:--e--3--3--1-----1--3-----3--|-----
A---4:--------s--s--|--4:--s-----------3--------------|-----
E-------------t--t--|------t--------------------------|-----


e s s e e e e q e s s e e e e q
G---------------------3--1--|--------------------------|----
D---3--3--1-----1--3--------|--------------------1-----|----
A------------3--------------|--3--3--1-----1--3-----3--|----
E---------------------------|-----------3--------------|----


e s s e q q e e s s e e e e q
G---------------------|-----r--------------------1-----|----
D---------------1--2--|-----e--3--3--1-----1--3-----3--|----
A---3--3--1-----------|-----s-----------3--------------|----
E------------3--------|-----t--------------------------|----


e s s e e e e q e s s e e e e q
G---------------------3--1--|--------------------------|----
D---3--3--1-----1--3--------|--------------------1-----|----
A------------3--------------|--3--3--1-----1--3-----3--|----
E---------------------------|-----------3--------------|----


e s s e q q e e e e e e e e
G---------------------|--------------------------|----------
D---------------1--2--|--------------------------|----------
A---3--3--1-----------|--3--3--3--3--3--3--3--3--|----------
E------------3--------|--------------------------|----------


e e e e e e e e
G---------------------------|-------------------------------
D---------------------------|-------------------------------
A---3--3--3--3--3--3--3--3--|-------------------------------
E---------------------------|-------------------------------


e t S s s e e e e q
G---r-----------------------------|-------------------------
D---e--3--5--3--1-----1--3--------|-------------------------
A---s--------------3--------1--3--|-------------------------
E---t-----------------------------|-------------------------


t S s s e q q e e e e e e e e
G------------------------|--------------------------|-------
D---3--5--3--1-----1-----|--------------------------|-------
A---------------3-----1--|--------------------------|-------
E------------------------|--1--1--1--1--1--1--1--1--|-------


Q Q q w q q
G------------|-----|------r--r--|---------------------------
D---3--1--0--|-----|--2:--e--e--|---------------------------
A------------|--3--|--4:--s--s--|---------------------------
E------------|-----|------t--t--|---------------------------


e e s s e e e e q
G----------r--------------------1-----|---------------------
D---4:-----e--3--3--1-----1--3-----3--|---------------------
A---4:-----s-----------3--------------|---------------------
E----------t--------------------------|---------------------


e s s e e e e q e s s e e e e q
G---------------------3--1--|--------------------------|----
D---3--3--1-----1--3--------|--------------------1-----|----
A------------3--------------|--3--3--1-----1--3-----3--|----
E---------------------------|-----------3--------------|----


e s s e q q e e s s e e e e q
G---------------------|-----r--------------------1-----|----
D---------------1--2--|-----e--3--3--1-----1--3-----3--|----
A---3--3--1-----------|-----s-----------3--------------|----
E------------3--------|-----t--------------------------|----


e s s e e e e q e s s e e e e q
G---------------------3--1--|--------------------------|----
D---3--3--1-----1--3--------|--------------------1-----|----
A------------3--------------|--3--3--1-----1--3-----3--|----
E---------------------------|-----------3--------------|----


e s s e q q e e s s e e e e q
G---------------------|-----r--------------------1-----|----
D---------------1--2--|-----e--3--3--1-----1--3-----3--|----
A---3--3--1-----------|-----s-----------3--------------|----
E------------3--------|-----t--------------------------|----


e s s e e e e q e s s e e e e q
G---------------------3--1--|--------------------------|----
D---3--3--1-----1--3--------|--------------------1-----|----
A------------3--------------|--3--3--1-----1--3-----3--|----
E---------------------------|-----------3--------------|----


e s s e q q e e s s e e e e q
G---------------------|-----r--------------------1-----|----
D---------------1--2--|-----e--3--3--1-----1--3-----3--|----
A---3--3--1-----------|-----s-----------3--------------|----
E------------3--------|-----t--------------------------|----


e s s e e e e q e s s e e e e q
G---------------------3--1--|--------------------------|----
D---3--3--1-----1--3--------|--------------------1-----|----
A------------3--------------|--3--3--1-----1--3-----3--|----
E---------------------------|-----------3--------------|----


e s s e q q e e s s e e e e q
G---------------------|-----r--------------------1-----|----
D---------------1--2--|-----e--3--3--1-----1--3-----3--|----
A---3--3--1-----------|-----s-----------3--------------|----
E------------3--------|-----t--------------------------|----


e s s e e e e q e s s e e e e q
G---------------------3--1--|--------------------------|----
D---3--3--1-----1--3--------|--------------------1-----|----
A------------3--------------|--3--3--1-----1--3-----3--|----
E---------------------------|-----------3--------------|----


e s s e q q
G---------------------||------------------------------------
D---------------1--2--||------------------------------------
A---3--3--1-----------||------------------------------------
E------------3--------||------------------------------------


LYRICS:
Peeping round the door I got a big surprise
Couldn't see a thing but open skies
They've taken her away where is she now
Wish that she was here wish she'd hold my hand
Maybe she could laugh maybe understand
Why was I so cruel where is she now
Acting like a fool I had to make her cry
Maybe I'm a Leo but I ain't a lion
I'm hurting oh so bad, I want her now.

============================================================
== TABLATURE EXPLANATION ==
============================================================

---------- ---------- ----t---
----5h8--- Hammeron ----(8)--- Ghost ----6--- Tap
---------- ---------- Note --------
----5p8--- Pulloff ---------- --------

---------- ---------- -----p--
----5/8--- Slide Up -----x---- Dead -----7-- Pop
---------- ---------- Note --s-----
----5\8--- Slide Down ---------- --5----- Slap

---------- ||------|| Repeat --------
----5~~~-- Vibrato ||*----*|| ---5^--- Bend
---------- ||*----*|| --------
---------- ||------|| --------

---------- ---------- --------
-4:------- Time ---------- --------
-4:------- Signature ---------- --------
---------- ---------- --------

Rhythm:
w = whole note W = dotted whole
h = half note H = dotted half
q = quarter note Q = dotted quarter
e = eighth note E = dotted eighth
s = sixteenth note S = dotted sixteenth
t = 32nd note T = dotted 32nd
x = 64th note X = dotted 64th


Friends Deep Purple
 
 
 
 
Написать администратору сайта
 
Lyrics-FLyrics-SLyrics-wLyrics-JLyrics-Z

Все песни  D_P

  школа в чехии, дети

SOMETIMES I FEEL LIKE SCREAMING
April/May 1962
Sometime during 1983


 
Копирование материалов с сайта только с согласия автора или при устаноки ссылки на источник

Неофициальный сайт Deep Purple © 2005 - 2017