Menu Deep Purple
 



Mistreated1
(Deep Purple)
From "Burn", 1974
Intro
E|---------------------------------------------------------------------|
B|---------------------------------------------------------------------|
G|--2~--------------------------/6~--4~-2------------------------------|
D|--2~-4~~~---2--4~~----2--4~~------------4~~----2--4~~---2--4~~-------|
A|---------------------------------------------------------------------|
E|----------2---------2------------------------2--------2--------------|
E|---------------------------------------------------------------------|
B|---------------------------------------------------------------------|
G|--2~~(4)-2------------------------------4h6p4----/6~-4~-2------------|
D|------------4~~---2--4~~----2--4~~--4-7-------7-----------4~~--------|
A|----------------------------------4----------------------------------|
E|----------------2---------2------------------------------------------|
E|---------------------------------------------------------------------|
B|---------------------------------------------------------------------|
G|--------------------/6~-4~-/6~~--/6--/6--/6~~~~\---------------------|
D|----2--4~~---2--4~~--------------------------------------------------|
A|---------------------------------------------------------------------|
E|--2--------2---------------------------------------------------------|


Friends Deep Purple
 
 
 
 
Написать администратору сайта
 
Lyrics-FLyrics-SLyrics-wLyrics-JLyrics-Z

Все песни  D_P

 

During 1996?
During 1993
SEVENTH HEAVEN


 
Копирование материалов с сайта только с согласия автора или при устаноки ссылки на источник

Неофициальный сайт Deep Purple © 2005 - 2017