Menu Deep Purple
 



Outro - Organ Solo

E E E E H E E E E-Q E E
|-------------------|------------|-----------------------|
|-------------------|------------|-----------------------|
|-------3-----------|------%-----|-3---------------------|
|-3--5--3--3--5-----|------%-----|-3--5--3--5------3-----|
|-3--5-----3--5-----|------------|----5--3--5------3--5--|
|-------------------|------------|-----------------------|

E E E E-Q E E E E E E-Q E E E E E E-Q E E
|----------------------|----------------------|----------------------|
|----------------------|----------------------|----------------------|
|-3--------------------|-3--------------------|-3h-5-----------------|
|-3--5--3--5------3--5-|-3--5--3--5------3--5-|-3h-5--3--5-----3-----|
|----5--3--5------3--5-|----5--3--5------3--5-|-------3--5-----3--5--|
|----------------------|----------------------|----------------------|
Begin to fade.......

E E EE RE E RE E RE E RE E RE E E E Q Q Q E E
|------------------------|-------------------------|---------------------|
|------------------------|-------------------------|---------------------|
|-3----------------------|-------------------------|---------------------|
|-3--5--3--5-----5-----5-|-----5-----5-----5--3--4-|-5----5----5----5--5-|
|----5--3--5-----5-----5-|-----5-----5-----5--3--4-|-5----5----5----5--5-|
|------------------------|-------------------------|---------------------|

RE E RE E RE E RE E E E E E RE E RE E RE E RE E RE E RE E
|-------------------------|------------------------|-------------------------|
|-------------------------|------------------------|-------------------------|
|-------------------------|-3----------------------|-------------------------|
|-----5-----5-----5-----5-|-3--5--3--5-----5-----5-|-----5-----5-----5-----5-|
|-----5-----5-----5-----5-|----5--3--5-----5-----5-|-----5-----5-----5-----5-|
|-------------------------|------------------------|-------------------------|

We all came out to Montreux
On the Lake Geneva shoreline
To make records with a mobile
We didn't have much time
Frank Zappa and the Mothers
Were at the best place around
But some stupid with a flare gun
Burned the place to the ground
Smoke on the water, fire in the sky

They burned down the gambling house
It died with an awful sound
Funky & Claude was running in and out
Pulling kids out the ground
When it all was over
We had to find another place
But Swiss time was running out
It seemed that we would lose the race
Smoke on the water, fire in the sky

We ended up at the Grand Hotel
It was empty cold and bare
But with the Rolling truck Stones thing just outside
Making our music there
With a few red lights and a few old beds
We make a place to sweat
No matter what we get out of this
I know we'll never forget
Smoke on the water, fire in the sky
From - Guitar For The Practicing Musician - December 1990


Friends Deep Purple
 
 
 
 
Написать администратору сайта
 
Lyrics-FLyrics-SLyrics-wLyrics-JLyrics-Z

Все песни  D_P

 

Early 1985 to June 1985
November/December 1978
Stay Down


 
Копирование материалов с сайта только с согласия автора или при устаноки ссылки на источник

Неофициальный сайт Deep Purple © 2005 - 2017