Menu Deep Purple
 



Pictures Of Home 2
(Bass Solo)
(Blackmore/Gillan/Glover/Lord/Paice)
From "Machine Head" 1972.
e^ e^ e^ e^ e^ e^ e^ e^ e^ e^ e^ e^ e^ e^
G|-----4-----5-----6-----7-----8-----9--|-----10------
D|--------------------------------------|-------------
A|--2-----3-----4-----5-----6-----7-----|--8----------
E|--------------------------------------|-------------

e^ e^ e^ e^ e^ e^ e^ e^ e^ e^ e^ e^ e^ e^ e^ e^
G-------11-----12------13------14------15--|------16------17------18----
D------------------------------------------|----------------------------
A---9------10------11------12------13------|--14------15------16--------
E------------------------------------------|----------------------------

e^ e^ e^ e^ e^ e^ H+(e) s s E E s e E e s
G------19------20---------|--------------|----------------------------
D-------------------------|--------------|--------------10--10--9-----
A---17-----18------19p20--|--------------|--------9p10----------------
E-------------------------|--0+(0)-------|-/7--7----------------------

s E E s s h s s E E E E e E
G-------|--12--12--11--9--11--|--16--16--16--14--------------|----------
D-------|---------------------|------------------16--15--14--|----------
A---12--|---------------------|------------------------------|--14------
E-------|---------------------|------------------------------|----------

E e E E e
G----------------------||
D----------------------||
A---12-----------------||
E-------14--13--12--10-||


Friends Deep Purple
 
 
 
 
Написать администратору сайта
 
Lyrics-FLyrics-SLyrics-wLyrics-JLyrics-Z

Все песни  D_P

 

Stay Down
Sometime during 1989/90
June 1975 to March 1976


 
Копирование материалов с сайта только с согласия автора или при устаноки ссылки на источник

Неофициальный сайт Deep Purple © 2005 - 2017