Menu Deep Purple
 



Pictures Of Home 2
(Blackmore/Gillan/Glover/Lord/Paice)
From "Machine Head" 1972.
-----|----------------------------|------------------7--------|
-----|-------------3--------------|-7-------------------------|
-----|---------2-4---4-2-4--------|------9-----7---7----------|
-----|---0-2-4--------------------|--------------9------------|
-----|-2--------------------------|---------------------------|
-----|----------------------------|---------------------------|
-----|----------------------------|---------------------------|
-----|-------------3--------------|---7-7-7-7-7---------------|
-----|---------2-4---4-2-4--------|-10----------....----------|
-----|---0-2-4--------------------|---------------------------|
-----|-2--------------------------|---------------------------|
-----|----------------------------|---------------------------|

Bm
Somebody's shouting up at a mountain
Only my own words return
Nobody's up there, it's a deception
D Em
When will I ever learn
Bm
I'm alone here
G Bm D
With emptiness eagles and snow
G Bm D
Unfriendliness chilling my body
G Bm G
And whispering pictures of home
Riff
Verse 2
Wondering blindly how can they find me
Maybe they don't even know
My body is shaking, anticipating
The call of the black footed crow
I'm alone here
With emptiness, eagles and snow
Unfriendliness chilling my body
And taunting with pictures of home
Guitar solo: Bm
Verse 3
Here in this prison of my own making
Year after day I have grown
Into a hero but there's no worship
Where have they hidden my thrown
I'm alone here
With emptiness, eagles and snow
Unfriendliness chilling my body
And screaming out pictures of home
Organ solo: Bm
Bass solo:
Riff


Friends Deep Purple
 
 
 
 
Написать администратору сайта
 
Lyrics-FLyrics-SLyrics-wLyrics-JLyrics-Z

Все песни  D_P

 

During 2002
Space Truckin' 1
Late 1979 or early 1980


 
Копирование материалов с сайта только с согласия автора или при устаноки ссылки на источник

Неофициальный сайт Deep Purple © 2005 - 2017