Menu Deep Purple
 



Pictures of Home 3
(Blackmore/Gillan/Glover/Lord/Paice)
From "Machine Head", 1972
As usual, listen the record for timing and all that guitar tricks.
/ - slide
~~ - vibrato
bf - full tone bend
Riff 1:
e|----------------------|--------------|----------------|
b|----------------------|--------------|----------------|
G|-----------4-7-4---4--|-9/11~~--9~~--|-7-----7/16~~---|
D|-------4-7-------7----|--------------|----9-----------|
A|---5-7----------------|--------------|----------------|
E|-7--------------------|--------------|----------------|
There's another guitar here which harmonizes this
part w/perfect 5ths:
e|----------------------|--------------------------------------
b|----------------------|-10/12-12-12-12-12--10/12-12-12-12-12-
G|-----------4-7-4---4--|--------------------------------------
D|-------4-7-------7----|--------------------------------------
A|---5-7----------------|--------------------------------------
E|-7--------------------|--------------------------------------

e|--------------------------------|
b|-11-12-10-----------------------|
G|-----------11-10-9--7-----------|
D|----------------------9-7-------|
A|--------------------------9-7---|
E|------------------------------8-|
Riff 2:
w/lyrics
If you find it hard to catch the rhythmic pattern that guitar plays, just keep
playing harmony the way your left leg (or right ear) likes it.
I think that even Blackmore himself doesn't remember how to play here.
e|-----------------|------------------|---------------|---------------|
b|-----------------|------------------|---------------|---------------|
G|-----------------|------------------|---------------|---------------|
D|-----------------|------------------|---------------|---------------|
A|-----------------|------------------|---------------|---------------|
E|-7--7-7-7----7-7-|-7---7-7--7--7--7-|-7---7---7---7-|7--7-7-7--7----|
e|-------------------|-------------------|--------------------|
b|-------------------|-------------------|--------------------|
G|-------------------|-------------------|--------------------|
D|-------------------|-------------------|--------------------|
A|-------------------|-------------------|--------------------|
E|-7---7-7---7---7-7-|-7---7-7---7---7-7-|-7---7-7---7---7--7-|
e|-------------------|--------------------|----------------------|
b|-------------------|--------------------|----------------------|
G|-------------------|--------------------|----------------------|
D|-------------------|--------------------|----------------------|
A|-5---5-5--5-5------|-7---7-7-7--7--7--7-|----------------------|
E|-------------------|--------------------|-7--7-7-7--7--7-7--7--|
e|--------------------|---------------------|--------------------|
b|--------------------|---------------------|--------------------|
G|--------------------|---------------------|--------------------|
D|--------------------|---------------------|--------------------|
A|-7--7-7-7--7---7-7--|---------------------|-7--7-7-7--7--7-7-7-|
E|--------------------|-7--7-7-7--7--7-7-7--|--------------------|
e|---------------------|---------------------|-------------------|
b|---------------------|---------------------|-------------------|
G|---------------------|---------------------|-------------------|
D|---------------------|---------------------|-------------------|
A|---------------------|-7--7-7-7---5--5-5-5-|-------------------|
E|-7--7-7-7--7--7-7-7--|---------------------|-3--3-3-3-3--3-3-3-|
e|--------------------|------------------|------------------|------------------|
b|--------------------|------------------|------------------|------------------|
G|--------------------|------------------|------------------|------------------|
D|--------------------|------------------|------------------|------------------|
A|--------------------|------------------|------------------|------------------|
E|-2-2-2--2--2--2-2-2-|-2--2--2--2--2--2-|-2--2--2--2--2--2-|-2--2--2--2--2--2-|

Then repeat riff 1...and riff 2...and then play SOLO.
SOLO:
No, no, no, I will not tab solo here. I always play my own one,
why don't you do the same? Just fool around B-moll pentatonic scale.
Then play riff 2...
The rhythm track for ORGAN SOLO:
e|-------------------| <--- Play many times, in different ways. Have fun.
b|-------------------|
G|-------------------|
D|-------------------|
A|-------------------|
E|-7---7-7-7-----7-7-|
Closer to the end of the solo:
e|--------------------|-----------------|-----------------|
b|--------------------|-----------------|-----------------|
G|--------------------|-----------------|-----------------|
D|--------------------|-----------------|-----------------|
A|-9----9-9-9---9---9-|-7---7-7-7---7-7-|-5---5-5-5---5--5|
E|--------------------|-----------------|-----------------|

/---3 times-------\
e|-----------------|------------------|------------
b|-----------------|------------------|------------
G|-----------------|------------------|------------
D|-----------------|------------------|------------
A|-----------------|------------------|------------
E|-3---3-3-3---3-3-|-2--2--2--2--2--2-|-7----------...BASS solo...

And riff 1...but not the whole one...you'll notice the time to play
following:
A bit difficult. Ok, ok - VERY DIFFICULT. Have enough practice:
e|-----------------------6-|--------------------
b|-----------------9-------|-----10-----9-----9- ECHO repeats the
G|-----------8-------------|--------8-7---8-7--- last 3 notes several times
D|-----7-------------4-3---|-8-7----------------
A|-------------5-4---------|--------------------
E|-7-6---7-5---------------|--------------------

And the OUTRO solo. It may not be all correct, but it is what I've heard:
e|---------|----------------------------|---------------------|
b|-10fb~~--|-10fb~~--10fb--10fb--10fb~~-|-10fb---10fb----10fb-|
G|---------|----------------------------|---------------------|
D|---------|----------------------------|---------------------|
A|---------|----------------------------|---------------------|
E|---------|----------------------------|---------------------|
e|-----------------|-----------------------------------|
b|-12--10--8-------|-----------------------------------|
G|------------11~~-|-9--7--6--7--6-7-6--4--6--4-5-4----|
D|-----------------|---------------------------------7-|
A|-----------------|-----------------------------------|
E|-----------------|-----------------------------------|
e|-------------------|---------------------------------------------------|
b|-------------------|---------------------------------------------------|
G|-------------------|---------------------------------------------------|
D|-9--7--5--7--4-----|---------------------------------------------------|
A|----------------7--|--10--9--7--9--7------7----------------------------|
E|-------------------|------------------10-----10--9--10--9--7--9--7--5--|
e|-----------|------------|----------------|---------------------------------|
b|-----------|------------|----------------|-------------------------10-12~~-|
G|-----------|------------|----------------|-------7--9--9fb~~~~--11---------|
D|-----------|------------|----------------|-7--9----------------------------|
A|-----------|------------|-5-4--7-5--9-7--|---------------------------------|
E|-7-------5-|-7------5-7-|----------------|---------------------------------|
/-------3 times----------------------------\
e|----------------------------------|--R--------|------------------------------------------|
b|-12----12~~~~----12------10-------|--E--------|------------------------------------------|
G|----11---------------11------9~~~-|--S-----11-|--14-11--14-14-11--14-14-11--14-14-11--11-|
D|----------------------------------|--T--------|------------------------------------------|
A|----------------------------------|-----------|------------------------------------------|
E|----------------------------------|-----------|------------------------------------------|
begin fade
e|-------------------------------|-------------------|-----------------------------|
b|-------------------------------|-------------------|-----------------------------|
G|-9-12-9-11----11----9---9------|-9-7---------------|-11-14-9-12-9-11-7-9-7---7---|
D|-----------12----11---9---11-9-|------9--9--7-9~~~~|-----------------------9---7-|
A|-------------------------------|-------------------|-----------------------------|
E|-------------------------------|-------------------|-----------------------------|
e|-------------------------|------------------------------------|
b|-------------------------|---------------------10bf--10bf~~~~-|
G|-9-7---------------------|-7---9-7---7-9-10-11----------------|
D|-----9-8-7-9-7---9-7-8-9-|---9-----9--------------------------|
A|---------------9---------|------------------------------------|
E|-------------------------|------------------------------------|
e|-14~--14~--14~~~--14-12----12-------|
b|------------------------15----12~~~-|
G|------------------------------------|
D|------------------------------------|
A|------------------------------------|
E|------------------------------------|


Friends Deep Purple
 
 
 
 
Написать администратору сайта
 
Lyrics-FLyrics-SLyrics-wLyrics-JLyrics-Z

Все песни  D_P

  Декоративные камни на люк или септик, and в москве

During 1991
April/May 1967
1973 to 1974


 
Копирование материалов с сайта только с согласия автора или при устаноки ссылки на источник

Неофициальный сайт Deep Purple © 2005 - 2017