Menu Deep Purple
 



Pictures of Home 4
(Blackmore/Gillan/Glover/Lord/Paice)
From "Machine Head", 1972
Take from a Brazilian guitar magazine.
+------------------+
| / = SLIDE |
| p = PULL OFF |
| h = HAMMER ON |
| ^ = BEND |
| ~ = VIBRATO |
+------------------+
Intro
|--------------------------------------|------------------------|
|---------------------------------10^~-|------------------------|
|--------------7-------9^--9~--7-7-----|--------------7---------|
|---------7-9---9-7-9~----------9------|---------7-9---9-7-9~~--|
|--5-7-7/9-----------------------------|--5-7-7/9---------------|
|-7------------------------------------|-7----------------------|
/
|----7-7-7-7-7---7-7-7-7-7---7----------------------|
|-10^---------10^---------10^--10-7-----------------|
|----------------------------------10-9-7-----------|
|----------------------------------------9-7--------|
|-------------------------------------------9-7-----|
|----------------------------------------------10---|

1-Somebody's shouting up at a mountain only my own words return______
2-Wondering blindly how can they find me maybe they don't even now____
3-Here in this prison of my own making year after day I have grow_____
|------------------------------------------------------------------
|------------------------------------------------------------------
|------------------------------------------------------------------
|------------------------------------------------------------------
|------------------------------------------------------------------
|-7---7-7-7---7-7--7----7-7-7--7--7----7-----7--7-----7---7-7-7-7-7
1-Nobody's up there it's a deception when will I ever learn?_________
2-My body is shaking anticipating the call of the black foo-ted crown
3-Into a hero but there's no worship where they hidden my throw_________
|----------------------------------------------------------------------
|----------------------------------------------------------------------
|----------------------------------------------------------------------
|----------------------------------------------------------------------
|---------------------------------------------------------5-----5-5-5-5
|-7---7-7-7---7-7--7---7-7-7--7--7----7------7--7--7-7-7---------------
____________________I'm alone here with emptiness eagles and snow_________
|----------------------------------------------------------------------------
|----------------------------------------------------------------------------
|----------------------------------------------------------------------------
|----------------------------------------------------------------------------
|-7--7-7-7-7--7---7---------------------7---7-7-7-7---7-7-7------------------
|-------------------7----7-7-7-7---7-7-7-------------------7---7-7-7-7--7-7-7
Friendliness chilling my body______ And whispering pictures of home
2- screaming
3- torturing
|--------------------------------------------------------------------------
|--------------------------------------------------------------------------
|--------------------------------------------------------------------------
|-----------------------------------5--------7-----------------------------
|-7--7-7-7-7--7-7-7-----------------3--3-3-3-5--5-5-5----------------------
|------------------7--7-7-7-7--7-7-7---------------------3--3-3-3-3--3-3-3-
|------------------------------------------------------------------7-------
|-------------------------------------------------------------7--7---------
|--------------------------------------------------------------------------
|--------------------------------------------------------------------------
|--------------------------------------------------------------------------
|-2-2-2-2-2-2-2-2-2-2-2-2-2-2-2-2-2-2-2-2-2-2-2-2-2-2-2-2-2-2--------------
Ok here start the SOLO
|-----------7-----------------------7--------------------------------
|10^--10^----10-9-7--------------10^-10-9-7--------------------------
|------------------10-9--7-9-7-7~----------10-9-7--9-9---9-7---7-7-7~
|-------------------------9---9------------------9------9----9-------
|--------------------------------------------------------------------
|--------------------------------------------------------------------
|-------------------------------------------------------------------
|-------------------------------------------------------------------
|6^-6^--6--4-----4--6p4-4-6p4-4-6p4-4-6p4-4-6p4-4-6p4-4-6p4-4-6p4--4
|-------------6--------6-----6-----6-----6-----6-----6-----6-----6--
|-------------------------------------------------------------------
|-------------------------------------------------------------------
|---------------------------------------------------------7----7-7----7
|--------------------------------------------------------7-10^----10^-
|6p4-6-4-4-6p4-4-6p4-4--4-4-6-4-6-7p6p4-9-7-7--9p7-7-9-10-------------
|---6---6-----6-----6----6-----------------9------9-------------------
|---------------------------------------------------------------------
|---------------------------------------------------------------------
|10p9p7--7-10p7--7-10p7--7-10p7--|10^-10^-10^-10^-10^-10^-
|------10------10------10------10|------------------------
|--------------------------------|------------------------
|--------------------------------|------------------------
|--------------------------------|------------------------
|--------------------------------|------------------------
hold bend------------------------
|10^-10-10-10-10-10-10-10-10-10-10-10--10^-10^-10^-10^-(10)-10-7------7--
|---------------------------------------------------------------10-7-7-10
|-------------------------------------------------------------------9----
|------------------------------------------------------------------------
|------------------------------------------------------------------------
|------------------------------------------------------------------------
|7-8-7-8-9p8p7------------10-----12^-|14---14-14---14---15---14-14
|-------------10--10-11-12--12-10----|--17^-----19^--19^--19^-----
|---------------11-------------------|----------------------------
|------------------------------------|----------------------------
|------------------------------------|----------------------------
|------------------------------------|----------------------------
|---14-14---14---14---14---14---14---14-14---14---14---14-14---14-14---14-14
|17^-----17^--17^--17^--17^--17^--17^-----17^--17^--17^-----17^-----17^-----
|---------------------------------------------------------------------------
|---------------------------------------------------------------------------
|---------------------------------------------------------------------------
|---------------------------------------------------------------------------
|---14-14---14-14---14-14-17^-(17)--17^-17^-17^--17^-17^-17^-17^~-----
|17^-----17^-----17^--------------------------------------------------
|---------------------------------------------------------------------
|---------------------------------------------------------------------
|---------------------------------------------------------------------
|---------------------------------------------------------------------
hold bend------
|---19-19---19-19---19-19---19-19---19-19---19-19--------------------
|22^-----22^-----22^-----22^-----22^-----22^-----22^-22-22-22-22-22--
|--------------------------------------------------------------------
|--------------------------------------------------------------------
|--------------------------------------------------------------------
|--------------------------------------------------------------------
|-----------------------17^-(17)-14-14---------14------------------------
|22^-22^-22^-22^-22^-22^--------------17-14--14--17-14-14----------------
|------------------------------------------16-------------17-16-14--16-14
|-----------------------------------------------------------------16-----
|------------------------------------------------------------------------
|------------------------------------------------------------------------
play this some times
|---------------------------| |-------------------------------------------|
|---------------------------| |-------------------------------------------|
|---------------------------| |-------------------------------------------|
|16-14--16-14-16--16--19~~~-| |-------------------------------------------|
|-----16--------------------| |-------------------------------------------|
|---------------------------| |2---2-2--2-2---2-2-2--2---2-2--2-2---2-2-2-|
than starts Jon's solos and Roger's solos

|--------------------------------------|------------------------|
|---------------------------------10^~-|------------------------|
|--------------7-------9^--9~--7-7-----|--------------7---------|
|---------7-9---9-7-9~----------9------|---------7-9---9-7-9~~--|
|--5-7-7/9-----------------------------|--5-7-7/9---------------|
|-7------------------------------------|-7----------------------|
|----------------6---5---4----|------------------------------------------
|------------8--------4-3-----|10^~-10^-10^-10^--10^~--10^~--10^~--------
|-------8---------3-2---------|------------------------------------------
|---9---------4-3-------------|------------------------------------------
|--------5-4------------------|------------------------------------------
|7-6-6-5----------------------|------------------------------------------
|----------------------------------------------------------------------
|10--9--7--------------------------------------------------------------
|---------9^~~~~~~--9-7-6--7-6h7p6\4-6-4h6p4\2--4-2h4p2-0--------------
|--------------------------------------------------------7-4--5-4-4----
|-----------------------------------------------------------7----7-5-7-
|----------------------------------------------------------------------
9^ ~~~~ ~~ ~~
|------------------------------------------------------------------------
|-----------------------------------------------------7-10-10^--10^--10^-
|------------------------------------------7-9-9^-(9)---------------9----
|---------------------------------------7-9------------------------------
|5-4-5-4------------------5-4--7-5-7/9-7---------------------------------
|-------7-5-7~~~-5-7~~-5-7-----------------------------------------------
~~~~~~~~~~~~~~~~
|7---------------------------| |---------------------------------------------
|-7-10------(9)----(9)----11-| |10--10-10--10-10--10-10--10-10--10-10--10-10-
|-----9^---------------------| |--11-----11-----11-----11-----11-----11------
|----------------------------| |---------------------------------------------
|----------------------------| |---------------------------------------------
|----------------------------| |---------------------------------------------
|--10-10--10-10--10-10--10-10--10-10--10|--------------------------------
|11-----11-----11-----11-----11-----11--|-8-7-7--------------------------
|---------------------------------------|9-9-7-6-9-9-6-9-7---------------
|---------------------------------------|---------9---9---9-9--7/9~~-----
|---------------------------------------|--------------------------------
|---------------------------------------|---------------------------------
~~~~~~
|----------------------------------------------------7---------12^-12^-12^--
|7-10--8-7------------------------------------------7-10^-(10)--------------
|----9--9-7-9-7-7--9-7------------------7-9-7-7-9-10------------------------
|--------------9-9----9-8-7-9-7-9-7-8-9--9---9------------------------------
|------------------------------9--------------------------------------------
|---------------------------------------------------------------------------
|12-10-12---------10-12~~-|----14-14-14-14-14---14-14-14-14-14
|--------12~-10-12--------|17^---------------17^--------------
|-------------------------|-----------------------------------
|-------------------------|-----------------------------------
|-------------------------|-----------------------------------
|-------------------------|-----------------------------------
|---14------------------------------------|
|17^--17-14-------------------------------|
|----------17-16-14-----------------------|
|------------------16-14------------------|
|-----------------------16-14-12----------|
|-------------------------------14~~~~----|


Friends Deep Purple
 
 
 
 
Написать администратору сайта
 
Lyrics-FLyrics-SLyrics-wLyrics-JLyrics-Z

Все песни  D_P

 

NO ONE CAME
GETTIN' TIGHTER September 1999


 
Копирование материалов с сайта только с согласия автора или при устаноки ссылки на источник

Неофициальный сайт Deep Purple © 2005 - 2017