Menu Deep Purple
 



Pictures of Home 5
(Blackmore/Gillan/Glover/Lord/Paice)
From "Machine Head", 1972
Main Riff
Bm F#m E D G
E-------------------------------------------------
B----------------------------------------10(12)--
G---------------7--------9(11)-9-7---7----------
D----------7-9---9-7-9------------9-------------
A------7-9---------------------------------------
E-7-10-------------------------------------------

Bm
E--------------------------
B--------------------------
G--------------7-----------
D----------7-9---9-7-9---
A------7-9----------------
E-7-10--------------------

Pre-Chorus Guitar Part
Guitar 1:
E---------------------------------------------------------------------------
B-10-12-12-12-12-12-10-12-12-12-12-12--11-12-10-------------------
G-----------------------------------------------11-10-9-------------------
D-------------------------------------------------------12-9---------------
A------------------------------------------------------------12-9----------
E-----------------------------------------------------------------12-10-7-
Guitar 2:
E-12-14-14-14-14-14-12-14-14-14-14-14--13-14-12---------------------
B-----------------------------------------------14-13-12--------------------
G--------------------------------------------------------14-11--------------
D--------------------------------------------------------------14-11--------
A--------------------------------------------------------------------14-12--
E--------------------------------------------------------------------------14

CHORDS:

Verse: (Slashes indicate STRUMS)
Bm
| / / / / | / / / / | / / / / | / / / / |

Bm D
| / / / / | / / / / | / / / / | / / / / |

Em Bm Em Bm
| / / / / | / / / / | / / / / | / / / / |

Em Bm C D G
| / / / / | / / / / | / / / / | / / / / |

Gb
| / / / / | / / / / | / / / / | / / / / |


Friends Deep Purple
 
 
 
 
Написать администратору сайта
 
Lyrics-FLyrics-SLyrics-wLyrics-JLyrics-Z

Все песни  D_P

 

Sometime during 1979
September 1985 to December 1986
During 1975


Аренда vip автомобилей здесь
 
Копирование материалов с сайта только с согласия автора или при устаноки ссылки на источник

Неофициальный сайт Deep Purple © 2005 - 2017