Menu Deep Purple
 



Pictures of Home 6
(Blackmore/Gillan/Glover/Lord/Paice)
From "Machine Head", 1972
Intro.
E|--------------------------------------------------------|-------------------|
H|--------------------------------------------------------|-------------------|
G|--------------------7-------------11--9--7--------7--12-|-------------------|
D|----------4---7--9-----9--7--9~~------------9--7--------|----------4--7--9--|
A|----5--7------------------------------------------------|----5--7-----------|
E|-7------------------------------------------------------|-7-----------------|
E|--------------14-14-14-14-12-14-14-14-14-15p14p12---------------------------|
H|--------------------------------------------------15p14p12------------------|
G|------------------------------------------------------------14--------------|
D|-7-------------------------------------------------------------14-----------|
A|---9--7--9~~------------------------------------------------------14--------|
E|----------------------------------------------------------------------------|
Verse.
E|-----------------------------------------------------------|----------------|
H|-----------------------------------------------------------|----------------|
G|-----------------------------------------------------------|----------------|
D|-----------------------------------------------------------|----------------|
A|-2--2-2-2--2-2-2--2-2-2--2-2-2--2-2-2--2-2-2--2-2-2--2-2-2-|-5--5-5-5---7---|
E|-----------------------------------------------------------|----------------|
E|--------|-------------------------------------------------------------------|
H|--------|-------------------------------------------------------------------|
G|--------|-------------------------------------------------------------------|
D|--------|-------------------------------------------------------------------|
A|-7-7-7--|--2--2-2-2-2--2-2-2--7--7-7-7-7--7-7-7---2--2-2-2-2--2-2-2--7--7-7-|
E|--------|-------------------------------------------------------------------|
E|------------------------|---------------------------------------------------|
H|------------------------|---------------------------------------------------|
G|------------------------|---------------------------------------------------|
D|------------------------|---------------------------------------------------|
A|-7-7--7-7-7--2--2-2-2-2-|-3-----5-------------------------------------------|
E|------------------------|--------------3-----2----3-2-2-2--3-2-2-2--3-2-2-2-|
That's the basic thing. Listen to the song to get the feel and structure of
the song. Left out a few minor things and the solo.


Friends Deep Purple
 
 
 
 
Написать администратору сайта
 
Lyrics-FLyrics-SLyrics-wLyrics-JLyrics-Z

Все песни  D_P

 

During 2001
Sometime during 1991
December 2000


 
Копирование материалов с сайта только с согласия автора или при устаноки ссылки на источник

Неофициальный сайт Deep Purple © 2005 - 2017