Menu Deep Purple
 



Rat Bat Blue4
(Blackmore/Gillan/Glover/Lord/Paice)
From "Who Do We Think We Are", 1973
Gtr I (E A D G) - 'Bass'
Q=96
4/4
Gtr I
W W W W
|----------|----------|----------|------|
|----------|----------|----------|------|
|----------|----------|----------|------|
|----------|----------|----------|------|

W E S S S S S S S E S S S S S E S S S S S S S E. +Q
|----------|-----------------------------|-------------------------|
|----------|---2---2-0---2---0-------0-2-|---2---2-0---2---0--(0)--|
|----------|-----------------------------|-------------------------|
|----------|-0---------0-------0---0-----|-0---------0-------------|

E S S S S S S S E S S S S S E S S S S S S S E. +Q
|-----------------------------|-------------------------|
|---2---2-0---2---0-------0-2-|---2---2-0---2---0--(0)--|
|-----------------------------|-------------------------|
|-0---------0-------0---0-----|-0---------0-------------|

E S S S S S S S E S S S S S E S S S S S S S E. +Q
|-----------------------------|-------------------------|
|---2---2-0---2---0-------0-2-|---2---2-0---2---0--(0)--|
|-----------------------------|-------------------------|
|-0---------0-------0---0-----|-0---------0-------------|

E S S S S S S S E S S S S S E S S S S S S S E. +Q
|-----------------------------|-------------------------|
|---2---2-0---2---0-------0-2-|---2---2-0---2---0--(0)--|
|-----------------------------|-------------------------|
|-0---------0-------0---0-----|-0---------0-------------|

S S S S S S S S S S S S S S S S S S S S S S S S S S S S S S S S
|---------------------------------|---------------------------------|
|---------------------------------|---------------------------0-1-2-|
|-0-0-0-0-0-0-0-0-0-0-0-0-0-0-0-0-|-0-0-0-0-0-0-0-0-0-0-0-0-0-------|
|---------------------------------|---------------------------------|

S S S S S S S S S S S S S S E S S S S S S S S S S S S S S S S
|-5-----------------------------|---------------------------------|
|-------------------------------|---------------------------------|
|---7-5-3-5-3-0-3-5-3-5-6-5-3-0-|-0-0-0-0-0-0-0-0-0-0-0-0-0-0-0-0-|
|-------------------------------|---------------------------------|

S S S S S S S S S S S S S S S S S S S S S S S S S S S S S S E
|---------------------------------|-5-----------------------------|
|---------------------------------|-------------------------------|
|-0-0-0-0-0-0-0-0-0-0-0-0-0-5-6-7-|---7-5-3-5-3-0-3-5-3-5-6-5-3-0-|
|---------------------------------|-------------------------------|

S S S S E S S S E S E S S S E S E S S E E E E S E S E S S S E S S S S S
|---------------------------|---------------------|----------------------------|
|---------------------------|---------------------|----------------------------|
|-5-5---5-5---3-5-5-5-5---3-|-5-5-5-5---3-5-------|-------------0-0-0-0-5-6-7--|
|-----------5-----------5---|---------5-----2-3-4-|-5-5-5-5-0-3----------------|

S S S S S S S S S S S S S S E H Q. E Q E. S S E S +S S S S
|-5-----------------------------|-------------|--------------------------|
|-------------------------------|-2----0------|---------------------0-2--|
|---7-5-3-5-3-0-3-5-3-5-6-5-3-0-|-----------3-|-0--0--0---0-0-(0)-2------|
|-------------------------------|-------------|--------------------------|

E S S S S S S S E S S S S S E S S S S S S S E. +Q
|-----------------------------|-------------------------|
|---2---2-0---2---0-------0-2-|---2---2-0---2---0--(0)--|
|-----------------------------|-------------------------|
|-0---------0-------0---0-----|-0---------0-------------|

E S S S S S S S E S S S S S E S S S S S S S E. +Q
|-----------------------------|-------------------------|
|---2---2-0---2---0-------0-2-|---2---2-0---2---0--(0)--|
|-----------------------------|-------------------------|
|-0---------0-------0---0-----|-0---------0-------------|

E S S S S S S S E S S S S S E S S S S S S S E. +Q
|-----------------------------|-------------------------|
|---2---2-0---2---0-------0-2-|---2---2-0---2---0--(0)--|
|-----------------------------|-------------------------|
|-0---------0-------0---0-----|-0---------0-------------|

E S S S S S S S E S S S S S E S S S S S S S E. +Q
|-----------------------------|-------------------------|
|---2---2-0---2---0-------0-2-|---2---2-0---2---0--(0)--|
|-----------------------------|-------------------------|
|-0---------0-------0---0-----|-0---------0-------------|

S S S S S S S S S S S S S S S S S S S S S S S S S S S S S S S S
|---------------------------------|---------------------------------|
|---------------------------------|---------------------------0-1-2-|
|-0-0-0-0-0-0-0-0-0-0-0-0-0-0-0-0-|-0-0-0-0-0-0-0-0-0-0-0-0-0-------|
|---------------------------------|---------------------------------|

S S S S S S S S S S S S S S E S S S S S S S S S S S S S S S S
|-5-----------------------------|---------------------------------|
|-------------------------------|---------------------------------|
|---7-5-3-5-3-0-3-5-3-5-6-5-3-0-|-0-0-0-0-0-0-0-0-0-0-0-0-0-0-0-0-|
|-------------------------------|---------------------------------|

S S S S S S S S S S S S S S S S S S S S S S S S S S S S S S E
|---------------------------------|-5-----------------------------|
|---------------------------------|-------------------------------|
|-0-0-0-0-0-0-0-0-0-0-0-0-0-5-6-7-|---7-5-3-5-3-0-3-5-3-5-6-5-3-0-|
|---------------------------------|-------------------------------|

S S S S E S S S E S E S S S E S E S S E E E E S E S E S S S E S S S S S
|---------------------------|---------------------|----------------------------|
|---------------------------|---------------------|----------------------------|
|-5-5---5-5---3-5-5-5-5---3-|-5-5-5-5---3-5-------|-------------0-0-0-0-5-6-7--|
|-----------5-----------5---|---------5-----2-3-4-|-5-5-5-5-0-3----------------|

S S S S S S S S S S S S S S E H Q. E Q E. S S E S +S S S S
|-5-----------------------------|-------------|--------------------------|
|-------------------------------|-2----0------|---------------------0-2--|
|---7-5-3-5-3-0-3-5-3-5-6-5-3-0-|-----------3-|-0--0--0---0-0-(0)-2------|
|-------------------------------|-------------|--------------------------|

E S S S S S S S E S S S S S E S S S S S S S E. +Q
|-----------------------------|-------------------------|
|---2---2-0---2---0-------0-2-|---2---2-0---2---0--(0)--|
|-----------------------------|-------------------------|
|-0---------0-------0---0-----|-0---------0-------------|

E S S S S S S S E S S S S S E S S S S S S S E. +Q
|-----------------------------|-------------------------|
|---2---2-0---2---0-------0-2-|---2---2-0---2---0--(0)--|
|-----------------------------|-------------------------|
|-0---------0-------0---0-----|-0---------0-------------|

E S S S S S S S E S S S S S E S S S S S S S E. +Q
|-----------------------------|-------------------------|
|---2---2-0---2---0-------0-2-|---2---2-0---2---0--(0)--|
|-----------------------------|-------------------------|
|-0---------0-------0---0-----|-0---------0-------------|

E S S S S S S S E S S S S S E S S S S S S S E. +S S S S
|-----------------------------|------------------------------|
|---2---2-0---2---0-------0-2-|---2---2-0---2---0--(0)-------|
|-----------------------------|----------------------------0-|
|-0---------0-------0---0-----|-0---------0------------0-3---|

S E S S S E S S E S S S S S E S S S E S S E S S S S
|---------------------------|----------------------------|
|---------------------------|----------------------------|
|-3-0-----0---3-0---------0-|-3-0-----0---3-0---------0--|
|-------3-------------0-3---|-------3-------------0-3----|

S E S S S E S S E S S S S S E S S S E S S E S S S S
|---------------------------|----------------------------|
|---------------------------|----------------------------|
|-3-0-----0---3-0---------0-|-3-0-----0---3-0---------0--|
|-------3-------------0-3---|-------3-------------0-3----|


Friends Deep Purple
 
 
 
 
Написать администратору сайта
 
Lyrics-FLyrics-SLyrics-wLyrics-JLyrics-Z

Все песни  D_P

 

JACK RUBY
During 1995
Sometime during 1964


 
Копирование материалов с сайта только с согласия автора или при устаноки ссылки на источник

Неофициальный сайт Deep Purple © 2005 - 2017