Menu Deep Purple
 


Rat Bat Blue44
 

S E S S S E S S E S S S S S E S S S E S S E S S S S
|---------------------------|----------------------------|
|---------------------------|----------------------------|
|-3-0-----0---3-0---------0-|-3-0-----0---3-0---------0--|
|-------3-------------0-3---|-------3-------------0-3----|

S E S S S E S S E S S S S S E S S S E S S E S S S S
|---------------------------|----------------------------|
|---------------------------|----------------------------|
|-3-0-----0---3-0---------0-|-3-0-----0---3-0---------0--|
|-------3-------------0-3---|-------3-------------0-3----|

S S S S S S S S S S S S S S S S S S S S S S S S S S S S S S S S
|---------------------------------|---------------------------------|
|---------------------------------|---------------------------------|
|-3-0-0-0---0-0-0-3-0-0-0-0-----0-|-3-0-0-0---0-0-0-3-0-0-0-0-----0-|
|---------3-----------------0-3---|---------3-----------------0-3---|

S S S S S S S S S S S S S S S S S S S S S S S S S S S S S S S S
|---------------------------------|---------------------------------|
|---------------------------------|---------------------------------|
|-3-0-0-0---0-0-0-3-0-0-0-0-----0-|-3-0-0-0---0-0-0-3-0-0-0-0-----0-|
|---------3-----------------0-3---|---------3-----------------0-3---|

S S S S S S S S S S S S S S S S S S S S S S S S S S S S S S S S
|---------------------------------|---------------------------------|
|---------------------------------|---------------------------------|
|-3-0-0-0---0-0-0-3-0-0-0-0-----0-|-3-0-0-0---0-0-0-3-0-0-0-0-----0-|
|---------3-----------------0-3---|---------3-----------------0-3---|

S S S S S S S S S S S S S S S S S S S S S S S S S S S S S S S S
|---------------------------------|---------------------------------|
|---------------------------------|---------------------------------|
|-3-0-0-0---0-0-0-3-0-0-0-0-----0-|-3-0-0-0---0-0-0-3-0-0-0-0-----0-|
|---------3-----------------0-3---|---------3-----------------0-3---|

S S S S S S S S S S S S S S S S S S S S S S S S S S S S S S S S
|---------------------------------|---------------------------------|
|---------------------------------|---------------------------------|
|-3-0-0-0---0-0-0-3-0-0-0-0-----0-|-3-0-0-0---0-0-0-3-0-0-0-0-----0-|
|---------3-----------------0-3---|---------3-----------------0-3---|

S S S S S S S S S S S S S S S S S S S S S S S S S S S S S S S S
|---------------------------------|---------------------------------|
|---------------------------------|---------------------------------|
|-3-0-0-0---0-0-0-3-0-0-0-0-----0-|-3-0-0-0---0-0-0-3-0-0-0-0-----0-|
|---------3-----------------0-3---|---------3-----------------0-3---|

S S S S S S S S S S S S S S S S S S S S S S S S S S S S S S S S
|---------------------------------|---------------------------------|
|---------------------------------|---------------------------------|
|-3-0-0-0---0-0-0-3-0-0-0-0-----0-|-3-0-0-0---0-0-0-3-0-0-0-0-----0-|
|---------3-----------------0-3---|---------3-----------------0-3---|

S S S S S S S S S S S S S S S S S S S S S S S S S S S S S S S S
|---------------------------------|---------------------------------|
|---------------------------------|---------------------------------|
|-3-0-0-0---0-0-0-3-0-0-0-0-----0-|-3-0-0-0---0-0-0-3-0-0-0-0-----0-|
|---------3-----------------0-3---|---------3-----------------0-3---|



Duration Legend
---------------
W - whole; H - half; Q - quarter; E - 8th; S - 16th; T - 32nd; X - 64th; a - acciaccatura
+ - note tied to previous; . - note dotted; .. - note double dotted
Uncapitalized letters represent notes that are staccato (1/2 duration)
Irregular groupings are notated above the duration line
Duration letters will always appear directly above the note/fret number it represents the
duration for. Duration letters with no fret number below them represent rests. Multi-
bar rests are notated in the form Wxn, where n is the number of bars to rest for. Low
melody durations appear below the staff
Tablature Legend
----------------
h - hammer-on
p - pull-off
b - bend
pb - pre-bend
r - bend release (if no number after the r, then release immediately)
/\ - slide into or out of (from/to "nowhere")
s - legato slide
S - shift slide
- natural harmonic
[n] - artificial harmonic
n(n) - tapped harmonic
~ - vibrato
tr - trill
T - tap
TP - trem. picking
PM - palm muting
\n/ - tremolo bar dip; n = amount to dip
\n - tremolo bar down
n/ - tremolo bar up
/n\ - tremolo bar inverted dip
= - hold bend; also acts as connecting device for hammers/pulls
<> - volume swell (louder/softer)
x - on rhythm slash represents muted slash
o - on rhythm slash represents single note slash
Misc Legend
-----------
| - bar
|| - double bar
||o - repeat start
o|| - repeat end
*| - double bar (ending)
: - bar (freetime)
$ - Segno
& - Coda
Tempo markers - = BPM(8/16=s8/s16),
 


Friends Deep Purple
 
 
 
 
Написать администратору сайта
 
Lyrics-FLyrics-SLyrics-wLyrics-JLyrics-Z

Все песни  D_P

 

Sometime during 1980 or 1981
SPEED KING
During 2001


 
Копирование материалов с сайта только с согласия автора или при устаноки ссылки на источник

Неофициальный сайт Deep Purple © 2005 - 2017