Menu Deep Purple
 



Smoke On The Water 2
("Made In Japan" version)
(Blackmore/Gillan/Glover/Lord/Paice)
From "Machine Head", 1972
Gtr I (E A D G B E) - 'Ritchie Blackmore'
Intro
Q=120
G5 Bb5 C5 G5 Bb5 DbC5 G5 Bb5 C5 Bb5 G5
4/4
Gtr I
E E E E Q E E E E E E Q Q E E E E Q E E E E +Q H
|----------------|---------------|----------------|----------------|
|----------------|---------------|----------------|----------------|
|-----3---5------|---3---6S5-----|-----3---5----3-|----------------|
|-5---3---5----5-|---3---6S5-----|-5---3---5----3-|---5-(5)\-------|
|-5---1---3----5-|---1---4S3-----|-5---1---3----1-|---5-(5)\-------|
|-3------------3-|---------------|-3--------------|---3-(3)\-------|

G5 Bb5 G5Bb5 G5 Bb5 G5 Bb5 G5Bb5
\1.5
E E E E Q E E E E E E Q Q E E E E Q E E +W W
|----------------|----------------|----------------|--------------|------|
|----------------|----------------|----------------|--------------|------|
|-----3---3----3-|------3---3-----|-----3---3----3-|-(3)----------|------|
|-5---3---3--5-3-|---5--3---3-----|-5---3---3--5-3-|-(3)----------|------|
|-5---1---1--5-1-|---5--1---1-----|-5---1---1--5-1-|-(1)----------|------|
|-3----------3---|---3------------|-3----------3---|--------------|------|

G5 G5 Bb5 C5 G5
W Q Q Q Q Q Q Q Q E E E E Q E E
|----------|-------------|-------------||------------------|
|----------|-------------|-------------||o-----------------|
|----------|-------------|-------------||------3---5-------|
|----------|-5--------x--|----x-----x--||--5---3---5----5--|
|----------|-5--------x--|----x-----x--||o-5---1---3----5--|
|----------|-3--------x--|----x-----x--||--3------------3--|

1st, 2nd & 3rd Verse
$
Bb5 DbC5 G5 Bb5 C5 Bb5 G5 Gm
PM---------|
E E E E Q Q E E E E Q E E E E +H Q 4x E E q E E q
|---------------|----------------|----------------||-||----------------|
|---------------|----------------|---------------o||-||o---------------|
|---3---6S5-----|-----3---5----3-|----------------||-||----------------|
|---3---6S5-----|-5---3---5----3-|---5-(5)--------||-||------5------5--|
|---1---4S3-----|-5---1---3----1-|---5-(5)-------o||-||o---5------5----|
|---------------|-3--------------|---3-(3)--------||-||--3------3------|

F Gm
PM---------------------------------------------------------|
E E q E E q E E q E E q E E q E E q E E q E E q
|---------------|---------------|---------------|----------------|
|---------------|---------------|---------------|----------------|
|---------------|---------------|---------------|----------------|
|-----5------5--|-----5------3--|-----5------5--|-----5------5---|
|---5------5----|---5------3----|---5------5----|---5------5-----|
|-3------3------|-3------1------|-3------3------|-3------3-------|

F Gm
PM---------------------------------------------------------|
E E q E E q E E q E E q E E q E E q E E q E E q
|---------------|---------------|---------------|----------------|
|---------------|---------------|---------------|----------------|
|---------------|---------------|---------------|----------------|
|-----5------5--|-----5------3--|-----5------5--|-----5------5---|
|---5------5----|---5------3----|---5------5----|---5------5-----|
|-3------3------|-3------1------|-3------3------|-3------3-------|

F Gm
PM---------------------------------------------------------|
E E q E E q E E q E E q E E q E E q E E q E E q
|---------------|---------------|---------------|----------------|
|---------------|---------------|---------------|----------------|
|---------------|---------------|---------------|----------------|
|-----5------5--|-----5------3--|-----5------5--|-----5------5---|
|---5------5----|---5------3----|---5------5----|---5------5-----|
|-3------3------|-3------1------|-3------3------|-3------3-------|

Chorus
F Gm C
PM-----------------------------------------|
E E q E E q E E q E E q E E q E E q Q Q H
|---------------|---------------|--------------||------------|
|---------------|---------------|--------------||------------|
|---------------|---------------|--------------||-------5----|
|-----5------5--|-----5------3--|-----5------5-||----5-------|
|---5------5----|---5------3----|---5------5---||-3----------|
|-3------3------|-3------1------|-3------3-----||------------|

Ab Gm C
Q Q H Q H. +W Q Q H
|------------|------------|------------|------------|
|------------|------------|------------|------------|
|------------|------------|------------|-------5----|
|-------6----|------5-----|-(5)--------|----5-------|
|----6-------|-5----------|-(5)--------|-3----------|
|-4----------|-3----------|-(3)--------|------------|
W +W

Ab G5 Bb5C5 G5 Bb5DbC5
Q Q H q q Q E E E q E Q. E
|------------|--------------|---------------|
|------------|--------------|---------------|
|------------|----3--5------|---3--6S5------|
|-------6----|-5--3--5----5-|---3--6S5------|
|----6-------|-5--1--3----5-|---1--4S3------|
|-4----------|-3----------3-|---------------|

1.
To Coda
G5 Bb5C5 Bb5 G5
q q Q E E E Q. +Q Q
|--------------|-------------------||
|--------------|------------------o||
|----3--5----3-|-------------------||
|-5--3--5----3-|---5--(5)----------||
|-5--1--3----1-|---5--(5)---------o||
|-3------------|---3--(3)----------||

Guitar Solo
2.
G5
E E. +H S S S E E +Q E E E E
|----------------------|--------------------------|
|----------------------|--------------------------|
|-------------------10-|-10-12--(12)--12----10-12-|
|---5----(5)--10h12----|-----------------12-------|
|---5----(5)-----------|--------------------------|
|---3----(3)-----------|--------------------------|

E E +Q E S S S S S S
|----------------------------------------|
|-10b12----------------------------------|
|--------12-(12)--12----10-12p10----10---|
|--------------------12----------12------|
|----------------------------------------|
|----------------------------------------|

S S S S S S S S S S S S S S S S
|-------------------------------------------------|
|-------------------------------------------------|
|-12p10----10-12p10----10-12p10----10-12p10----10-|
|-------12----------12----------12----------12----|
|-------------------------------------------------|
|-------------------------------------------------|

|-----3-----| |-----3-----|
Q Q Q Q Q Q +Q S S S S E Q S S
|-------------------------------------|--------------------------------13b15===|
|-13b15-13b15-13b15-13b15-13b15-13b15-|-(13)b15--13----11----11-----11---------|
|-------------------------------------|-------------12----12----12-------------|
|-------------------------------------|----------------------------------------|
|-------------------------------------|----------------------------------------|
|-------------------------------------|----------------------------------------|

|------3-------| |------3-------|
+Q S S S S S S S S S S S S S S S S
|-(13)--10----------------------------------------------|
|----------13-11-------11-13p11----11-13p11----11-13p11-|
|----------------12-12----------12----------12----------|
|-------------------------------------------------------|
|-------------------------------------------------------|
|-------------------------------------------------------|

E E +Q +E S S S S S S
|-----------------------10-----10-13p10-------|
|----13b15--(13)--(13)-----13-----------13----|
|-12------------------------------------------|
|---------------------------------------------|
|---------------------------------------------|
|---------------------------------------------|

|------3-------| |------3-------| |-----3-----|
S S S S S S S S S S S S Q Q Q
|-10h13p10----10h13p10----10h13p10----13b15-13b15-13b15-|
|----------13----------13----------13-------------------|
|-------------------------------------------------------|
|-------------------------------------------------------|
|-------------------------------------------------------|
|-------------------------------------------------------|

|--3--|
E E E E +Q E E Q E E +E S S S S S S S
|-13b15-13b15-13b15-13b15-(13)b15--13b15-13b15-|-13b15--13b15-13b15==(13)r13-10-13p10-13p10-----|
|----------------------------------------------|--------------------------------------------13--|
|----------------------------------------------|------------------------------------------------|
|----------------------------------------------|------------------------------------------------|
|----------------------------------------------|------------------------------------------------|
|----------------------------------------------|------------------------------------------------|

|--3--|
S S S S S E S +E S S S S E.
|-10-13p10----------------------------------|
|----------13-11-10-------------------------|
|-------------------12-(12)-10h12p10----10--|
|------------------------------------12-----|
|-------------------------------------------|
|-------------------------------------------|

~~~
|--3--| |--3--|
Q S S S E Q E E E E E E E S S S E E
|----------------------------|-------------------------------|
|----------------------------|----11-10-11-13-11-13-11-10-13-|
|-/12--10h12p10----10\-------|-12----------------------------|
|---------------12-------/12-|-------------------------------|
|----------------------------|-------------------------------|
|----------------------------|-------------------------------|

E E E E E Q. E E E E E E E E
|----10----10-13-13b15---|-15----15-17-18-18pb20r18-17-|
|-11----13---------------|----18-----------------------|
|------------------------|-----------------------------|
|------------------------|-----------------------------|
|------------------------|-----------------------------|
|------------------------|-----------------------------|

E E +H E E +E E E E Q. E
|-15-----------------18-|-(18)b20-18b20-18b20-18b20-18b20---------|
|----18-(18)b20---------|----------------------------------18b20==|
|-----------------------|-----------------------------------------|
|-----------------------|-----------------------------------------|
|-----------------------|-----------------------------------------|
|-----------------------|-----------------------------------------|

+E E E E Q E E +E E E E Q E E
|-------------------------------|---------------------------------|
|-(18)r18-15-18-18b20-----------|------13-------13----------------|
|------------------------12b14==|=(12)----12b14----12b14----12b14-|
|-------------------------------|---------------------------------|
|-------------------------------|---------------------------------|
|-------------------------------|---------------------------------|

\1
+E E +H E E +Q e e e e e e
|-------------------------|---------------------------------------------|
|---------10-(10)------13-|-(13)b15-13b15-13b15-13b15-13b15-13b15-13b15-|
|-(12)b14-----------------|---------------------------------------------|
|-------------------------|---------------------------------------------|
|-------------------------|---------------------------------------------|
|-------------------------|---------------------------------------------|

|-----3-----| |-----3-----|
e e e e e e e e e e
|-------------------------------------------------------------|
|-13b15-13b15-13b15-13b15-13b15-13b15-13b15-13b15-13b15-13b15-|
|-------------------------------------------------------------|
|-------------------------------------------------------------|
|-------------------------------------------------------------|
|-------------------------------------------------------------|

|-----3-----| |-----3------| |-----3-----|
E E E +E E E E E E E E E E E E Q Q
|---------------------------------------------------------------|------------------------------|
|-13b15-13b15-13b15-(13)b14-13b14-13b14-13b14-13b14-13b14r13-13-|-13b15-15r13---------10b12----|
|---------------------------------------------------------------|-------------12--12-----------|
|---------------------------------------------------------------|------------------------------|
|---------------------------------------------------------------|------------------------------|
|---------------------------------------------------------------|------------------------------|

+E E Q E E E E +E E E E Q Q
|----------------------------|---------------------------|
|-(10)b12--------------------|------11-------13b15===13--|
|---------12-12--10-12-10-12-|-(12)----12-10-------------|
|----------------------------|---------------------------|
|----------------------------|---------------------------|
|----------------------------|---------------------------|


Friends Deep Purple
 
 
 
 
Написать администратору сайта
 
Lyrics-FLyrics-SLyrics-wLyrics-JLyrics-Z

Все песни  D_P

 

November 1993 to September 1994
Sometime during 1992
Sometime during 1989


 
Копирование материалов с сайта только с согласия автора или при устаноки ссылки на источник

Неофициальный сайт Deep Purple © 2005 - 2017