Menu Deep Purple
 



Smoke On The Water 8
(Blackmore/Gillan/Glover/Lord/Paice)
From "Machine Head", 1972
Solo (the most solo-improvise is constructed on the G-min pentatonic).
E||----------------------|-----------------------|----------------------------|
B||----------------------|-----------------13r---|--11b---------11b-x--x------|
G||----------------------|--12~--------x---------|------12~---------x--x------|
D||--------------12--15--|-----------------------|------------------------12--|
A||----------------------|-----------------------|----------------------------|
E||----------------------|-----------------------|----------------------------|

------------------------------|--------------------------------------|
------------------------------|--------------------------------------|
------12--15--15b-----15--14--|--12--14--12h14p12\10--12--10--8--10--|
--15--------------------------|--------------------------------------|
------------------------------|--------------------------------------|
------------------------------|--------------------------------------|

----------------------------|--------------------8----------|
-------------------------8--|--11--11b-11--11b---11--8--11--|
--10--10b-10b-10b-----x-----|-------------------------------|
----------------------x-----|-------------------------------|
----------------------------|-------------------------------|
----------------------------|-------------------------------|

-------8---------------------------------|--------------------------|
-----8---11-10-8-------------------------|--------------------------|
--10b------------11-10p8----10-8-7p5-----|-----------5-----8--7--5--|
-------------------------10----------8-7-|--5--8--7-----8-----------|
-----------------------------------------|--------------------------|
-----------------------------------------|--------------------------|

-----------------------|-----------------------|
-----------------------|-----------------------|
--3r-------5--3--2--3--|--2--3--2--0---0-------|
-----------------------|-----------------------|
-----------------------|-----------------------|
-----------------------|-----------------------|

------3---3-3--------------------|----------------------------|
----3---6b----6-5p3--------------|----------------------3--6--|
--5b----------------6p5-3---5-3--|--5b---5b---5b---5b---------|
--------------------------5------|----------------------------|
---------------------------------|----------------------------|
---------------------------------|----------------------------|

--3--------3--6--8b-----|--8b-8--6--8------------|
-----3--6---------------|--------------8~-----8--|
------------------------|------------------------|
------------------------|------------------------|
------------------------|------------------------|
------------------------|------------------------|

-----------8------8------8----8--10--|--11--13----13b-------13--|
--11-----8---11-8---11-8---11--------|--------------------------|
------10b----------------------------|--------------------------|
-------------------------------------|--------------------------|
-------------------------------------|--------------------------|
-------------------------------------|--------------------------|

--13b-13--13b-13--13b-----13--|--13b-13--10----------------|
------------------------------|--------------13--13b-------|
------------------------------|----------------------------|
------------------------------|----------------------------|
------------------------------|----------------------------|
------------------------------|----------------------------|

-------------------------|-----8--6--8--8b-------|--8b-8b-8b-8b-8b-8b-8b-8b-|
-----6-------------------|--8--------------------|--------------------------|
--5b----5b-3b-5--3b------|-----------------------|--------------------------|
--------------------5----|-----------------------|--------------------------|
-------------------------|-----------------------|--------------------------|
-------------------------|-----------------------|--------------------------|

--8b---8b---8b---8b--8b-----|-------------------||
-------------------------6--|------6b-----------||
----------------------------|-------------------||
----------------------------|-------------------||
----------------------------|-------------------||
----------------------------|-------------------||


Friends Deep Purple
 
 
 
 
Написать администратору сайта
 
Lyrics-FLyrics-SLyrics-wLyrics-JLyrics-Z

Все песни  D_P

 

KISS TOMORROW GOODBYE
Sometime during 1971
CONTACT LOST


купить недвижимость в испании барселона
 
Копирование материалов с сайта только с согласия автора или при устаноки ссылки на источник

Неофициальный сайт Deep Purple © 2005 - 2017