Menu Deep Purple
 



Space Truckin' 2
(Blackmore/Gillan/Glover/Lord/Paice)
From "Machine Head", 1972
intro
----------------------
----------------------
----------------------
----------------------
------5-3----3--5-----
-3-5------5-------3-5-
verses
(riff 1)
A C D
--------- ------- -------
--------- ------- -------
--------- ------- -------
--------- ------- -------
-7-9-7-9- -10-12- -12-14-
-5-5-5-5- -8--8-- -10-10-
(w/riff 1)
A C D A
(1)We had a lot of luck on Venus We always had a ball on Mars
(2)Remember when we did the moonshot And Pony Trekker led the way
C D A
Meeting all the groovey people We've rocked the Milky Way so far
We'd move to the Canaveral moonstop And everynaut would dance and sway
D A D E E7
We danced around with Borealice We're space truckin' round the the stars
We got music in our solar system We're space truckin' round the stars
chorus
(riff 2) (riff 3)
A(4x) E(3x) (1x)
---------------- ---------------- ---------
---------------- ---------------- ---------
---------------- ---------------- ---------
---------------- ---------------- ---------
---7-6-5-------- ---2-1-0-------- ---------
-5--------8-7-6- -0--------3-2-1- -0-1-2-3-
A(w/riff 2)
Come on Come on Come on let's go Space Truckin'
E(w/riff 3)
Come on Come on Come on Space Truckin'
(riff 4)
Am7
-x-x-x-x--x-x-x-x--x-x-x-x-5-5-
-x-x-x-x--x-x-x-x--x-x-x-x-5-5-
-x-x-x-x--x-x-x-x--x-x-x-x-5-5-
-x-x-x-x--x-x-x-x--x-x-x-x-5-5-
-------------------------------
-------------------------------
Am7(w/riff 4)
(3)The fireball that we rode was moving But now we've got a new machine
C5 D5
Yeah Yeah Yeah Yeah the freaks said Man those cats can really swing
Am7
They got music in their solar system They've rocked around the Milky Way
C5 D5 E
They dance around the Borealice They're Space Truckin' everyday
solo
A
----------------------------------5--------------------------------
------------------------8b10-8b10---8-5----------------------------
-----5b6--------5b6---------------------8p7-5---7-5--------5b7---0-
-5s7-----7--5-7-----7-------------------------7-----7-5--7-----7-0-
-------------------------------------------------------------------
-------------------------------------------------------------------
---5-3s5-5-3s5-----5-5-----5------------------------------------------5-------------------------
---5-3s5-5-3s5-5-3s5-5-3s5-----8---7---5-------------------------8b10---8p5---------------------
-----------------------------7---7---7---7-7---5b6-----5b6------------------8p7p5---7---5b6-----
-7-------------------------------------------7-----7--------7p0-------------------7---7-----7p0-
-0----------------------------------------------------------------------------------------------
------------------------------------------------------------------------------------------------
(drum solo)
Esus4 Esus4(b9) E
-5-----5--------------------------------------------------------------
-5-----5--------------------------------------------------------------
-4-----4---------3-4-5-6--3-4-5-6--7-8-9-10-11-12-13-14-15-16-17-18s9-
-2-----3---------2-3-4-5--2-3-4-5--6-7-8-9--10-11-12-13-14-15-16-17s8-
-2-----2---------1-2-3-4--1-2-3-4--5-6-7-8--9--10-11-12-13-14-15-16s7-
-0-----0--------------------------------------------------------------

Free Credit Report undefined More... [Close] [Close] undefined when a blind man cries
intro
Bm Em Bm Em Bm Em Bm
-----------------------------------------------------------------
----------------------7-10b12----10b12-10------------------------
-----9b11---------6s7---------------------9b11-7-----------------
-7-9------------------------------------------------7-9--------7-
-----------------------------------------------------------7h9---
-----------------------------------------------------------------
verses
Bm A Bm
------------------------------------------0---------7-
-------3----------------3---------------2---------7---
-----4---4------2-----4---4---4-------2-----2---7-----
---4--------2h4-----4-------4-------2---------9-------
-2----------------2-------------2-0-------------------
------------------------------------------------------
(1)if youre leaving close the door im not expecting people anymore
(2)had a friend once in a room had a good time but it ended much to soon
A Bm
---------7----------------7-------------------------7--
-------7----------------7-------------------------7----
-----7----------------7-------------------------7------
-7-9--------------7-9-----------9--11-------7-9--------
-------------------------------------------------------
-5-7--------------5-7-----------7--9--------5-7--------
hear me grieving lying on the floor whether im dead or drunk i really aint to sure
in a cold month in that room found a reason for the things we had to do
chorus
Bm D5 G5 Em
-------------------------------7---10-9-7--------0-------
-----3-----------5b7---------8---8--------8--------0-----
-------4-2-4---------------7----------------9--------0---
---4-----------0-----------------------------------------
-2-------------------------------------------------------
-------------------------------------------------------0-
(1)im a blind man im a blind man and my world is pale
(2)im a blind man im a blind man now my romm is cold
Bm D G Bm
---------2---------------------------------------------------
-------3---3-------------------------------------------------
-----4-------4--------7-------7----------------------------7-
---4----------------7---7---7----5--4------------9-------9---
-2-------------2--5-------5------------7--5----9---9---9-----
---------------------------------------------7-------7-------
when a blind man cries lord you know there aint a sadder tale
when a blind man cries lord you know he feels it from his soul
solo
Bm
---------------------------------------------------------------------------------
--------------------------------10-----------------------------------------------
-9b11-9b11-9b11-9b11-9b11-9b11-----9b11r9-7--9b11-9b11-9b11-9b11--9b11r9-7-------
---------------------------------------------------------------------------------
---------------------------------------------------------------------------------
---------------------------------------------------------------------------------
A Bm
-------------------------------------------------------7-10-10b12-10-9-7------
--------------------7-10-10b12-10b12-10b12-10b12--7-10-------------------7-10-
-6-7--7b9---7-6---------------------------------------------------------------
----------------9-------------------------------------------------------------
------------------------------------------------------------------------------
------------------------------------------------------------------------------
A Bm
--------7--------------------------------------------
------7---7------------------------------------------
-9b11-------7----9-7h9p7-6--7--7b9r7--------------7--
--------------9-----------------------9--7--9--9-----
-----------------------------------------------------
-----------------------------------------------------
Bm D5 G5
------------------------------------------------------10-------------10-------
------------------------------------------------10b12----10b12-10b12----10b12-
-9b11-9b11-9b11-9b11-----7-9b11-9b11-9b11-9b11--------------------------------
-----------------------9------------------------------------------------------
------------------------------------------------------------------------------
------------------------------------------------------------------------------
Em Bm D5
---------------10b12--10--10~b12--10~b12-10-7-----------------------------
-10b12-10b12-----------------------------------10-------------10----------
--------------------------------------------------9b11-9b11------9b11r9-7-
--------------------------------------------------------------------------
--------------------------------------------------------------------------
--------------------------------------------------------------------------
G Bm
---------------------------------12b14-12b14r12-10-
--------------------------10b12--------------------
-9b11-9---7--9b11-9-7---7--------------------------
--------9-------------9----------------------------
---------------------------------------------------
---------------------------------------------------


Friends Deep Purple
 
 
 
 
Написать администратору сайта
 
Lyrics-FLyrics-SLyrics-wLyrics-JLyrics-Z

Все песни  D_P

 

April 1984 to April 1989
Sometime during 1971
Sometime during 1998/1999


 
Копирование материалов с сайта только с согласия автора или при устаноки ссылки на источник

Неофициальный сайт Deep Purple © 2005 - 2017