Menu Deep Purple
 



Space Truckin' 4
(Blackmore/Gillan/Glover/Lord/Paice)
From "Machine Head", 1972
Bass Tablature
INTRO
G---------------|------|---------|---------|---------------|------|---------|---------|
D---------------|------|---------|---------|---------------|------|---------|---------|
A------O--5--3--|---O--|---3--5--|------O--|------O--5--3--|---O--|---3--5--|------O--|
E---3-----------|------|---------|---3-----|---3-----------|------|---------|---3-----|
G---------------|------|---------|---------|---------------|------|---------|---------|
D---------------|------|---------|---------|---------------|------|---------|---------|
A------O--5--3--|---O--|---3--5--|------O--|------O--5--3--|---O--|---3--5--|------O--|
E---3-----------|------|---------|---3-----|---3-----------|------|---------|---3-----|
A
G---------|------------------|---------------|---------------------|------------------|
D---------|------------------|---------------|---------------------|------------------|
A------O--|---O--O--O--O--O--|---O--O--O--O--|---3--3--3--5--5--5--|---O--O--O--O--O--|
E---3-----|------------------|---------------|---------------------|------------------|
G------------------|------------------|------------------|---------------------|
D------------------|------------------|------------------|---------------------|
A---O--O--O--O--O--|---O--O--O--O--O--|---O--O--O--O--O--|---O--O--O--O--3--4--|
E------------------|------------------|------------------|---------------------|
B
G---------------------|------------------------|------------------------|
D---------4--4--5--7--|---------7--5--5--------|---------4--4--5--6--7--|
A---5--5--------------|---O--O-----------7--3--|---5--5-----------------|
E---------------------|------------------------|------------------------|
G---------------------------|---------------------------|
D---------------------------|---------------------------|
A---7--7--7--7--7--7--5--6--|---7--7--7--7--7--7--7--7--|
E---------------------------|---------------------------|
C
G------------------------|------------------------|------------------------|
D------2--1--O-----------|------2--1--O-----------|------2--1--O-----------|
A---O-----------3--2--1--|---O-----------3--2--1--|---O-----------3--2--1--|
E------------------------|------------------------|------------------------|
G-------------------------|------------------------|------------------------|
D-------2--1--O-----------|------------------------|------------------------|
A---O------------3--2--O--|------2--1--O-----------|------2--1--O-----------|
E-------------------------|---O-----------3--2--1--|---O-----------3--2--1--|
G------------------------|---------------|
D------------------------|---------------|
A------2--1--O-----------|---------------|
E---O-----------3--2--1--|---O--1--2--3--|
GET BACK TO A
B
G---------------------|------------------------|-------------------------|
D---------4--4--5--7--|---------7--5--5--------|----------4--4--5--6--7--|
A---5--5--------------|---O--O-----------7--3--|---5--5------------------|
E---------------------|------------------------|-------------------------|
G---------9--9--7-----------------------------|
D------------------9--7--5-----------5--7-----|
A---7--7--------------------7--5--7-----------|
E------------------------------------------7--|
GET BACK TO C
D
G---------------|------|---------|---------|---------------|------|---------|---------|
D---------------|------|---------|---------|---------------|------|---------|---------|
A------O--5--3--|---O--|---3--5--|------O--|------O--5--3--|---O--|---3--5--|------O--|
E---3-----------|------|---------|---3-----|---3-----------|------|---------|---3-----|
G---------------|------|---------|---------|---------------|------|---------|
D---------------|------|---------|---------|---------------|------|---------|
A------O--5--3--|---O--|---3--5--|------O--|------O--5--3--|---O--|---3--5--|
E---3-----------|------|---------|---3-----|---3-----------|------|---------|
G---------------------------|---------------------------|------------------------9--|
D---------------------------|---------------------------|---------------------------|
A---7--7--7--7--7--7--7--7--|---7--7--7--7--7--7--7--7--|---7--7--7--7--7--7--7-----|
E---------------------------|---------------------------|---------------------------|
G---7--------------------|
D------9--8--7--5--------|
A------------------7--5--|
E------------------------|
GET BACK TO C
E
G------------|---------|---------|---------|---------|---------|---------|---------|
D------------|---------|---------|---------|---------|---------|---------|---------|
A---O-----O--|------O--|------O--|------O--|------O--|------O--|------O--|------O--|
E------3-----|---3-----|---3-----|---3-----|---3-----|---3-----|---3-----|---3-----|
F
G---------|---------|---------|---------|---------|---------|---------|---------|
D---------|---------|---------|---------|---------|---------|---------|---------|
A------O--|------O--|------O--|------O--|------O--|------O--|------O--|------O--|
E---3-----|---3-----|---3-----|---3-----|---3-----|---3-----|---3-----|---3-----|
G---------|---------|---------|---------|---------|---------|---------|---------|
D---------|---------|---------|---------|---------|---------|---------|---------|
A------O--|------O--|------O--|------O--|------O--|------O--|------O--|------O--|
E---3-----|---3-----|---3-----|---3-----|---3-----|---3-----|---3-----|---3-----|
G
G---------------------|---------------------|---------------------|------------------------|
D---------------------|---------------------|---------------------|------------------------|
A---7--7--7--4--5--6--|---7--7--7--4--5--6--|---7--7--7--4--5--6--|---7--7--7--7--7--4--5--|
E---------------------|---------------------|---------------------|------------------------|
G---9--9--9--9--9--6--7--8--|---9--9--9--9--9--6--7--8--|---9--9--7--7--------------|
D---------------------------|---------------------------|---------------9--9--7--7--|
A---------------------------|---------------------------|---------------------------|
E---------------------------|---------------------------|---------------------------|
G---------------------------|
D---5--5--------------------|
A---------7--7--5--5--------|
E---------------------7--7--|
H
G------------------------|------------------------|------------------------|
D------2--1--O-----------|------2--1--O-----------|------2--1--O-----------|
A---O-----------3--2--1--|---O-----------3--2--1--|---O-----------3--2--1--|
E------------------------|------------------------|------------------------|
G------------------------|------------------------|------------------------|
D------2--1--O-----------|------------------------|------------------------|
A---O-----------3--2--O--|------2--1--O-----------|------2--1--O-----------|
E------------------------|---O-----------3--2--1--|---O-----------3--2--1--|
G------------------------|------------------------|---------------|
D------------------------|------------------------|---------------|
A------2--1--O-----------|------2--1--O-----------|---------------|
E---O-----------3--2--1--|---O-----------3--2--1--|---O--1--2--3--|
PLAY H AGAIN
G------------------------|------------------------|------------------------|
D------2--1--O-----------|------2--1--O-----------|------2--1--O-----------|
A---O-----------3--2--1--|---O-----------3--2--1--|---O-----------3--2--1--|
E------------------------|------------------------|------------------------|
G------------------------|
D------2--1--O-----------|
A---O-----------3--2--1--|
E------------------------|


Friends Deep Purple
 
 
 
 
Написать администратору сайта
 
Lyrics-FLyrics-SLyrics-wLyrics-JLyrics-Z

Все песни  D_P

 

During 2000 S
April 1966 till later the same year
June 1983 to March 1984


 
Копирование материалов с сайта только с согласия автора или при устаноки ссылки на источник

Неофициальный сайт Deep Purple © 2005 - 2017