Menu Deep Purple
 



Space Truckin' 5
(Guitar solo, from California Jam 74)
(Blackmore/Gillan/Glover/Lord/Paice)
From "Machine Head", 1972
E||------------------|------------------|------------------|------------------|
B||------------------|------------------|------------------|------------------|
G||------------------|------------------|------------------|------------------|
D||------------------|------------------|-------5~---------|------------------|
A||----5=7~----------|----5=7~----------|----7-------------|----5=7~----------|
E||------------------|------------------|------------------|------------------|


------------------|------------------|------------------|------------------|
------------------|------------------|------------------|------------------|
------------------|------------------|------------------|------------------|
------------------|-------5~---------|----7-9~----------|----11-9-7~--4----|
----5=7~----------|----7-------------|------------------|---------------5~-|
------------------|------------------|------------------|------------------|


------------------|------------------|------------------|------------------|
------------------|------------------|------------------|------------------|
------------------|------------------|------------------|------------------|
--------5~--------|-------3=4~-------|------5~----------|----7-9~----------|
----5-7------7-7~-|--5-7-------5-2~--|----7-------------|------------------|
------------------|------------------|------------------|------------------|


------------------|------------------|------------------|------------------|
------------------|------------------|------------------|------------------|
------------------|------------------|------------------|------------------|
----11-9-7~--4----|--------5~--------|------------------|------------------|
---------------5~-|----5-7-----------|----9-7-6~--------|----4-6-7~--------|
------------------|------------------|------------------|------------------|


Friends Deep Purple
 
 
 
 
Написать администратору сайта
 
Lyrics-FLyrics-SLyrics-wLyrics-JLyrics-Z

Все песни  D_P

 

Sometime during 1987
March 1994 till later the same year
During 1996


 
Копирование материалов с сайта только с согласия автора или при устаноки ссылки на источник

Неофициальный сайт Deep Purple © 2005 - 2017