Menu Deep Purple
 



Stay Down
(Blackmore/Coverdale/Lord/Paice)
From "Burn", 1974
Keyboard Intro arranged for guitar

E-------------------10--10--10--8--8--8--5--5--5--3--3--3--1--1--1------
B-------------------10--10--10--8--8--8--5--5--5--3--3--3--1--1--1------
G-------2---------------------------------------------------------------
D-------0---------------------------------------------------------------
A-----------------------------------------------------------------------
E-----------------------------------------------------------------------

E-----------------------------------------------------------------------
B---3--3--3--1--1--1----------------------------------------------------
G---2--2--2--0--0--0--2--2--2-------------------------------------------
D---------------------2--2--2--3--3--3--0-------------------------------
A------------------------------3--3--3--0-------------------------------
E-----------------------------------------------------------------------

Riff A (Guitar enters)

E--------------||-------------------------------------------------------
B--------------||-------------------------------------------------------
G--------------||--5-----------------------5--6--7-----------------5----
D--------5--7--||-----7--5--7--------5--7-----------5--------5--7-------
A---5/7--------||-----------------7-----------------------7-------------
E--------------||-------------------------------------------------------


E-----------------------------------------------------------------------
B-----------------------------------------------------------------------
G------------------------5--6--7--7^-------------------5----------------
D---7--5--7--------5--7--------------------------5--7-----7--5--7-------
A---------------7---------------------------5h7-------------------------
E-----------------------------------------------------------------------

Riff B (Verse 1)

E------------------------------||--||-----------------------------------
B---------------------5-----8--||--||-----------------------------------
G------------5--6--7-----------||--||*----------------------------------
D------5--7--------------------||--||*--7--7--7--7--7\------------7-----
A---7--------------------------||--||-----------------------------5-----
E------------------------------||--||-----------------------------------


E------r---------------\---r--------r----------------r------------------
B------e-------------------e--------e-----3---------\e------------------
G------s-----------2--2----s--------s-----2-----2--2-s--------2--2------
D---7--t-----5-----2--2----t-----5--t-----0-----2--2-t--------0--0------
A---5--------5-----0--0----------5--------------0--0--------------------
E------------3-------------------3--------------------------------------

(Brief time change to 6/4)
E---r-------------------------------------------------------------------
B---e-------------------------------------------------------------------
G---s-----------2--2---------------------------------------------5------
D---t-----5-----2--2---------------------------------------5--7---------
A---------5-----0--0---------3--4--5-----------3--4--5--7---------------
E---------3---------------------------3--4--5---------------------------

Riff C (Chorus)

E----||------||---------------------------------------------------------
B----||------||---------------------------------------------------------
G---*||------||*--2-----2--2--------7--5--2-----2--------------2--------
D---*||------||*--2--4--2-----7--7--------2--4--2-----7--4--7--2--4-----
A----||------||---0--0--0-----5--5--5--3--0--0--0--0--5--5--5--0--0-----
E----||------||---------------------------------------------------------


E----------------------------------------------------------------||-----
B----------------------------------------------------------------||-----
G------2--------------------------------------------------5-----*||-----
D---2--2--5-----------------------------------------5--7--------*||-----
A---0--0--5-----------3--4--5-----------3--4--5--7---------------||-----
E---------3--------------------3--4--5---------------------------||-----

Riff A (Same as Intro) Riff B (Verse 2) 1X Only
E---------------------------------||--||--------------------------------
B---------------------------------||--||--------------------------------
G---------------------------------||--||*-------------------------------
D---------------------------------||--||*-------------------------------
A---------------------------------||--||--------------------------------
E---------------------------------||--||--------------------------------

Riff C (Chorus)
E----------||--||----------------------||-------------------------------
B----------||--||----------------------||-------------------------------
G---------*||--||*--------------------*||-------------------------------
D---------*||--||*--------------------*||-------------------------------
A----------||--||----------------------||-------------------------------
E----------||--||----------------------||-------------------------------

E-----------------------------------------------------------------------
B-----------------------------------------------------------------------
G---12^-----12^~~~-----(12)^--(14)p12--10--12---------p-------p---------
D----------------------------------------------12~~~--10--p---10--p-----
A---------------------------------------------------------12------12----
E-----------------------------------------------------------------------

E-----------------------------------------------------------------------
B-----------------------------------------------------------------------
G---p--------------------------------------------------------10h12------
D---10--p---10h12p10------10~~~-----x-----------------10h12-------------
A-------12------------12------------------------------------------------
E-----------------------------------------------------------------------

To be continued....

E-----------------------------------------------------------------------
B-----------------------------------------------------------------------
G---p10------10h12p10------10h12p10--10---------------------------------
D--------12------------12-----------------------------------------------
A-----------------------------------------------------------------------
E-----------------------------------------------------------------------

Lyrics:

Verse 1
"I don't care if my name goes as long as you give me just what I want,
I been losin' my direction, gotta find a new connection.
You have wasted and never tasted, now I'm really getting' hungry more and more,
Been a long time, had a bad sign. Tell me what am I beggin' for?"

Chorus
"Lover are you feelin?
You know they really need it.
Keep on pushin' for more.
Lay down, stay down.
I've got something to find,
There's one thing I really need,
I'm gonna tell you right now.
Lay down, stay down!"

Verse 2
"Lookin' for trouble, I guess that's right
When I was young, I was taught to fight.
It's been long gone, since I had known,
Now I'm heading for some more."

Transcriber's notes:
Yeah, I left off near the opening of the solo, but
This should give you a running start on learning this one. I decided to
Leave off the timing, since it only seemed to confuse things. Listen to
The album and the rest should come naturally. Well, as natural as playing
Blackmore can be!

========================================================================
== TABLATURE EXPLANATION ==
========================================================================

---------- ---------- ----t---
----5h8--- Hammeron ----(8)--- Ghost ----6--- Tap
---------- ---------- Note --------
----5p8--- Pulloff ---------- --------

---------- ---------- -----p--
----5/8--- Slide Up -----x---- Dead -----7-- Pop
---------- ---------- Note --s-----
----5\8--- Slide Down ---------- --5----- Slap

---------- ||------|| Repeat --------
----5~~~-- Vibrato ||*----*|| ---5^--- Bend
---------- ||*----*|| --------
---------- ||------|| --------

---------- ---------- --------
-4:------- Time ---------- --------
-4:------- Signature ---------- --------
---------- ---------- --------

Rhythm:
w = whole note W = dotted whole
h = half note H = dotted half
q = quarter note Q = dotted quarter
e = eighth note E = dotted eighth
s = sixteenth note S = dotted sixteenth
t = 32nd note T = dotted 32nd
x = 64th note X = dotted 64th
^ = triplet


Friends Deep Purple
 
 
 
 
Написать администратору сайта
 
Lyrics-FLyrics-SLyrics-wLyrics-JLyrics-Z

Все песни  D_P

 

Sometime during 1994 or 1995
Sometime during 1971
During 1996?


 
Копирование материалов с сайта только с согласия автора или при устаноки ссылки на источник

Неофициальный сайт Deep Purple © 2005 - 2017