Menu Deep Purple
 



Super Trouper2
(Blackmore/Gillan/Glover/Lord/Paice)
From "Who Do We Think We Are", 1973
intro
E|----------------------------------|
B|----------------------------------|
G|--8-9-----7-----------------------|
D|------8-9---5-6-------5-----------|
A|----------------7-6-7-------------|
E|------------------------6\5-3-0---|
main riff
E|-------------------------------------|
B|-------------------------------------|
G|--8-9-----7--------------------------|
D|------8-9---5-6----------5-----------|
A|----------------7----6-7-------------|
E|---------------------------6\5-3-0---|
solo
E|----------------------------------------------------------------------
B|--5-------------------------------------------------------------------
G|----5b6~-\--5p3p3-5p3p2-5p3p2b3~~\--5p3p3b3\---------------------2b3\-
D|----------------------------------------------4--------------4--------
A|------------------------------------------------3\2~~--2h3h4----------
E|---------------------------------------------------------------2------
E|--7---------5---------------------------------------------------------
B|----6h7-5-7---6p5~~---------------------------------------------------
G|----------------------------------------------------------------------
D|----------------------------------------------------------------------
A|----------------------------------------------------------------------
E|----------------------------------------------------------------


Friends Deep Purple
 
 
 
 
Написать администратору сайта
 
Lyrics-FLyrics-SLyrics-wLyrics-JLyrics-Z

Все песни  D_P

 

Sometime during 1990
During 1978
August 1977 to November 1978


 
Копирование материалов с сайта только с согласия автора или при устаноки ссылки на источник

Неофициальный сайт Deep Purple © 2005 - 2017