Menu Deep Purple
 


Woman From Tokyo33
 

------------------------|------------------------|------------------------|
------------------------|------------------------|------------------------|
-------2----2h-1-----2--|----1-------------------|-------2----2h-1-----2--|
-------2----2--------2--|----2----2-----------0h-|--2----2----2--------2--|
------------------------|---------2----2--0h2----|------------------------|
--0---------------0-----|------------------------|--0---------------0-----|

----------------------|-------------------3--|----------------3-----|
----0-----------------|-------3-----------1--|------------xh3----3--|
----1-----------------|-------0-----------0--|------------5h4-------|
----2-----------------|-------0-----------3--|------------5-5-------|
----------------------|----------------------|----------------------|
-------------0--1--2--|--3-------------3-----|----------------------|

----------------------|--------3-----------------|-----------------------|
-------3-----------3--|-----3-----3--------------|-------3------------3--|
-------0-----------5--|-----4-----4--------------|-------0--0---------5--|
----------------------|--5-----------5--3--3-3---|--------------------3--|
----------------------|--------------------------|-----------------------|
--3-------------3-----|--------------------------|--3--------------3-----|

-----------------------|----------------------------------|
----3-------3----------|----------------------------------|
----4------------------|------5h3h0---4h0-5h0-3h0-5h0-5h0-|
---------5-------------|--0h2-----------------------------|
-----------------------|----------------------------------|
-----------------3--3--|----------------------------------|

--------------------------|------------------------|------------------------|
------x-0-----------------|------------------------|------------------------|
--7h0-7h0---2/-5/-----21--|-------2----2h-1-----2--|----1-------------------|
--------------------------|-------2----2--------2--|----2----2-----------0h-|
--------------------------|------------------------|---------2----2--0h2----|
--------------------------|--0---------------0-----|------------------------|

------------------------|-------------------|------------------------|
------------------------|----0--------------|------------------------|
-------2----2h-1-----2--|----1--------------|-------2----2h-1-----2--|
--2----2----2--------2--|----2--------------|-------2----2--------2--|
------------------------|-------------------|------------------------|
--0---------------0-----|-------------------|--0---------------0-----|

------------------------|------------------------|--------------------|
------------------------|------------------------|----0---------------|
----1-------------------|-------2----2h-1-----2--|----1---------------|
----2----2-----------0h-|--2----2----2--------2--|----2---------------|
---------2----2--0h2----|------------------------|--------------------|
------------------------|--0---------------0-----|---------------1/---|

----------------------|----------------------|-----------------------|
----------------------|----------------------|-----------------------|
----------------------|----------------------|-----------------------|
-------9---------9----|-------7---------7----|-----------------------|
----------------------|----------------------|-------7----6/5h7------|
--7-----------7-------|----5---------5-------|--0--------------------|

-----------------------|----------------------|----------------------|
-----------------------|----------------------|----------------------|
-----------------------|----------------------|----------------------|
-----------------------|-------9---------9----|-------7---------7----|
-------7---------5h-7--|----------------------|----------------------|
--0-----------0--------|--7-----------7-------|----5---------5-------|

----------------------|----------------------|----------------------|
----------------------|----------------------|----------------------|
----------------------|----------------------|----------------------|
----------------------|----------------------|-------9---------9----|
-------7---------7----|-------7---------7----|----------------------|
----0---------0-------|----0---------0-------|----7---------7-------|

----------------------|----------------------|----------------------|
----------------------|----------------------|----------------------|
----------------------|----------------------|----------------------|
-------7---------7----|----------------------|----------------------|
----------------------|-------7---------7----|-------7---------7----|
----5---------5-------|----0---------0-------|----0---------0-------|

----------------------|----------------------|----------------------------|
----------------------|----------------------|--------11------------------|
----------------------|----------------------|----10b-----10b-10b-----10b-|
-------9---------9----|-------7---------7----|----------------------------|
----------------------|----------------------|----------------------------|
----7---------7-------|----5---------5-------|----------------------------|

--8~-------------------------|--8--------------------------|
--8~-----8--11--11b--------8-|-----11--11b-11--11b-----13b-|
-----10b----------------10b--|-----------------------------|
-----------------------------|-----------------------------|
-----------------------------|-----------------------------|
-----------------------------|-----------------------------|

------------------------0-|------------------------|------------------------|
---13b--13b--13b------0-0-|------------------------|------------------------|
----------------------0---|-------2----2h-1-----2--|----1-------------------|
----------------------0---|-------2----2--------2--|----2----2-----------0h-|
--------------------------|------------------------|---------2----2--0h2----|
--------------------------|--0---------------0-----|------------------------|

------------------------|-------------------|------------------------|
------------------------|----0--------------|------------------------|
-------2----2h-1-----2--|----1--------------|-------2----2h-1-----2--|
--2----2----2--------2--|----2--------------|-------2----2--------2--|
------------------------|-------------------|------------------------|
--0---------------0-----|-------------------|--0---------------0-----|

------------------------|------------------------|-------------------|
------------------------|------------------------|----0--------------|
----1-------------------|-------2----2h-1-----2--|----1--------------|
----2----2-----------0h-|--2----2----2--------2--|----2--------------|
---------2----2--0h2----|------------------------|-------------------|
------------------------|--0---------------0-----|-------------------|

------------------------|------------------------|------------------------|
------------------------|------------------------|------------------------|
-------2----2h-1-----2--|----1-------------------|-------2----2h-1-----2--|
-------2----2--------2--|----2----2-----------0h-|--2----2----2--------2--|
------------------------|---------2----2--0h2----|------------------------|
--0---------------0-----|------------------------|--0---------------0-----|

-------------------|------------------------|------------------------|
----0--------------|------------------------|------------------------|
----1--------------|-------2----2h-1-----2--|----1-------------------|
----2--------------|-------2----2--------2--|----2----2-----------0h-|
-------------------|------------------------|---------2----2--0h2----|
-------------------|--0---------------0-----|------------------------|

------------------------|----------------------|------------------------|
------------------------|----0-----------------|------------------------|
-------2----2h-1-----2--|----1-----------------|-------2----2h-1-----2--|
--2----2----2--------2--|----2--------------0h-|--2----2----2--------2--|
------------------------|---------------0h2----|------------------------|
--0---------------0-----|----------------------|--0---------------0-----|

-------------------|------------------------|------------------------|
-------------------|------------------------|------------------------|
----1--------------|-------2----2h-1-----2--|----1-------------------|
----2--------------|-------2----2--------2--|----2----2-----------0h-|
----2--------------|------------------------|---------2----2--0h2----|
----0--------------|--0---------------0-----|------------------------|

------------------------|----------------------|------------------------|
------------------------|----0-----------------|------------------------|
-------2----2h-1-----2--|----1-----------------|-------2----2h-1-----2--|
Guitar 2

E||------------------|------------------|------------------|------------------|
B||------------------|------------------|------------------|------------------|
G||------------------|------------------|------------------|------------------|
D||------------------|------------------|------------------|------------------|
A||------------------|------------------|------------------|------------------|
E||------------------|------------------|------------------|------------------|

------------------|------------------|------------------|------------------|
------------------|------------------|------------------|------------------|
------------------|------------------|------------------|------------------|
------------------|------------------|------------------|------------------|
------------------|------------------|------------------|------------------|
------------------|------------------|------------------|------------------|

3x
|-------------------|-------------------||------------------|------------------|
|-------------------|-------------------||------------------|------------------|
|*------------------|------------------*||------------------|------------------|
|*------------------|------------------*||------------------|------------------|
|-------------------|-------------------||------------------|------------------|
|-------------------|-------------------||------------------|------------------|

------------------|------------------|------------------|------------------|
------------------|------------------|------------------|------------------|
------------------|------------------|------------------|------------------|
------------------|------------------|------------------|------------------|
------------------|------------------|------------------|------------------|
------------------|------------------|------------------|------------------|

------------------|------------------|------------------|------------------|
------------------|------------------|------------------|------------------|
------------------|------------------|------------------|------------------|
------------------|------------------|------------------|------------------|
------------------|------------------|------------------|------------------|
------------------|------------------|------------------|------------------|

------------------|------------------|------------------|------------------|
------------------|------------------|------------------|------------------|
------------------|------------------|------------------|------------------|
------------------|------------------|------------------|------------------|
------------------|------------------|------------------|------------------|
------------------|------------------|------------------|------------------|

------------------|------------------|------------------|------------------|
------------------|------------------|------------------|------------------|
------------------|------------------|------------------|------------------|
------------------|------------------|------------------|------------------|
------------------|------------------|------------------|------------------|
------------------|------------------|------------------|------------------|

------------------|------------------|------------------|------------------|
------------------|------------------|------------------|------------------|
------------------|------------------|------------------|------------------|
------------------|------------------|------------------|------------------|
------------------|------------------|------------------|------------------|
------------------|------------------|------------------|------------------|

------------------|------------------|------------------|------------------|
------------------|------------------|------------------|------------------|
------------------|------------------|------------------|------------------|
------------------|------------------|------------------|------------------|
------------------|------------------|------------------|------------------|
------------------|------------------|------------------|------------------|

------------------|------------------|------------------|------------------|
------------------|------------------|------------------|------------------|
------------------|------------------|------------------|------------------|
------------------|------------------|------------------|------------------|
------------------|------------------|------------------|------------------|
------------------|------------------|------------------|------------------|

------------------|------------------|------------------|------------------|
------------------|------------------|------------------|------------------|
------------------|------------------|------------------|------------------|
------------------|------------------|------------------|------------------|
------------------|------------------|------------------|------------------|
------------------|------------------|------------------|------------------|


Friends Deep Purple
 
 
 
 
Написать администратору сайта
 
Lyrics-FLyrics-SLyrics-wLyrics-JLyrics-Z

Все песни  D_P

 

July 1969 to June 1973
October 1999 to 2002
June 1970 to December 1971


 
Копирование материалов с сайта только с согласия автора или при устаноки ссылки на источник

Неофициальный сайт Deep Purple © 2005 - 2017